>
 >
American Science

American Science Bass Tabs

Duran Duran - American Science chords, tabs, tablatures, lyrics

Guitar lessons | Add/correct | Request | Top 50 tabs Artists:  A B C D E F G H I J K L M N O P Q R S T U V W X Y Z 0-9

American Science Bass Tabs – Duran Duran

CD, Sheet music, Poster

Do you like American Science? Share with your friends now
Bass Tabs
 02. American Science Bass Tab


  Intro (00:07) & 1st Verse (00:27)
  
  Dm /    /     /    Dm7   /   /   G

 G|------------------|----------------|----------------|----------------|
 D|------------------|----------------|----------------|----------------|  
 A|--5---3-----------|3---------0-3-4-|5---3-----------|1---0-----0-----|X4
 E|----------3---5---|----5-----------|--------3---5---|--------3---3-1-|
 C|  D               |Am              |D               |Bb      Gm7
 M|  1 & 2 & 3 & 4 & |1 & 2 & 3 & 4 & |1 & 2 & 3 & 4 & |1 & 2 & 3 & 4 & |


 Bridge 1 (00:45)

 G|------------------|----------------|----------------|----------------|
 D|------------------|----------------|----------------|----------------|
 A|------------------|0---0---0---0-30|5---5--x5---5---|--7-5---5-7-5---|X2
 E|--1---1--x1---1-31|----------------|----------------|----------------|
 C|  F               |Am              |Dm  
 M|  1 & 2 & 3 & 4 & |1 & 2 & 3 & 4 & |1 & 2 & 3 & 4 & |1 & 2 & 3 & 4 & |

 Chorus (01:05)

 G|------------------|----------------|
 D|------------------|----------------|  
 A|--2---4---5-------|0---------------|
 E|------------------|-------0-2-3-4--|
 C|  Bm      D       |A      E        |
 M|  1 & 2 & 3 & 4 & |1 & 2 & 3 & 4 & |


 G|----------------------|---------------|   |--------|
 D|----------------------|---------------|   |--------|
 A|--0-1-2---4---5-------|0--------------|X3 |---1-3--|
 E|----------------------|------0-2-3-4--|   |-4------|
 C|      Bm      D       |A     E
 M|      1 & 2 & 3 & 4 & |1 & 2 & 3 & 4 &|


 Guitar solo 1 (01:27) & 2nd Verse (01;36)

 G|------------------|----------------|----------------|----------------|
 D|------------------|----------------|----------------|----------------|  
 A|--5---3-----------|3---------0-3-4-|5---3-----------|1---0-----0-----|X3
 E|----------3---5---|----5-----------|--------3---5---|--------3---3-1-|
 C|  D               |Am              |D               |Bb      Gm7
 M|  1 & 2 & 3 & 4 & |1 & 2 & 3 & 4 & |1 & 2 & 3 & 4 & |1 & 2 & 3 & 4 & |
 

 Bridge 2 (01:55)

 G|------------------|----------------|----------------|----------------|
 D|------------------|----------------|----------------|----------------|
 A|------------------|0---0---0---0-30|5---5--x5---5---|5-7-5---5-7-5---|X2
 E|--1---1--x1---1-31|----------------|----------------|----------------|
 C|  F               |Am              |Dm  
 M|  1 & 2 & 3 & 4 & |1 & 2 & 3 & 4 & |1 & 2 & 3 & 4 & |1 & 2 & 3 & 4 & |


 Chorus (02:14)

 G|------------------|----------------|
 D|------------------|----------------|  
 A|--2---4---5-------|0---------------|
 E|------------------|-------0-2-3-4--|
 C|  Bm      D       |A      E        |
 M|  1 & 2 & 3 & 4 & |1 & 2 & 3 & 4 & |

                      p p
 G|----------------------|---------------|   
 D|-------------------5/7|---------------|   
 A|--0-1-2---4---5-------|0--------------|
 E|----------------------|------0-2-3-4--|   
 C|      Bm      D       |A     E
 M|      1 & 2 & 3 & 4 & |1 & 2 & 3 & 4 &|


 G|----------------------|---------------|   
 D|----------------------|---------------|   
 A|--0-1-2---4---5-------|0--------------|
 E|----------------------|------0-2-3-4--|   
 C|      Bm      D       |A     E
 M|      1 & 2 & 3 & 4 & |1 & 2 & 3 & 4 &|


                      p p
 G|----------------------|---------------| |-------|  
 D|-------------------5/7|---------------| |-------| 
 A|--0-1-2---4---5-------|0--------------| |-0-2/2-|
 E|----------------------|------0-2-3-4--| |-------| 
 C|      Bm      D       |A     E
 M|      1 & 2 & 3 & 4 & |1 & 2 & 3 & 4 &|
 

 
 Guitar solo 2 (02:36)


 G|------------------|----------------|
 D|------------------|----------------|  
 A|------------------|----------------|
 E|--x-1-1-xx1-1--x1-|--1-1--x1-1--x1-|
 C|      
 M|  1 & 2 & 3 & 4 & |1 & 2 & 3 & 4 & |

 G|------------------|----------------|----------------|
 D|------------------|----------------|----------------|
 A|-x5-5--x5-5---x5--|-5-5--x5-5---567|8---6---1---3---|
 E|------------------|----------------|----------------|
 C|                               
 M|  1 & 2 & 3 & 4 & |1 & 2 & 3 & 4 & |1 & 2 & 3 & 4 & |

 G|------------------|----------------|
 D|------------------|----------------|  
 A|------------------|----------------|
 E|--x-1-1-xx1-1--x1-|-x1-1--x1-1--x1/|
 C|      
 M|  1 & 2 & 3 & 4 & |1 & 2 & 3 & 4 & |
 
 

 3rd Verse (03:05)

 G|-------------------------|-------|   
 D|-------------------------|-------|   
 A|--0-3-4--5---3-------0---|3---0--|x3
 E|-----------------3-------|-------|   
 C|             
 M|         1 & 2 & 3 & 4 & |1 & 2

 
 G|------------------------|----------------|
 D|------------------------|----------------|
 A|--0-3-4-5---3-------0---|1---0-----0-----|
 E|----------------3-------|--------3---3/--|
 C|                               
 M|        1 & 2 & 3 & 4 & |1 & 2 & 3 & 4 & |

 

 Bridge (03:26)

 G|------------------|----------------|----------------|----------------|
 D|------------------|----------------|----------------|----------------|
 A|------------------|0---0---0---0-30|5---5--x5---5---|5-7-5---5-7-5---|X2
 E|--1---1--x1---1-31|----------------|----------------|----------------|
 C|  F               |Am              |Dm  
 M|  1 & 2 & 3 & 4 & |1 & 2 & 3 & 4 & |1 & 2 & 3 & 4 & |1 & 2 & 3 & 4 & |



 Chorus (03:45)

                     p p
 G|----------------------|---------------|   
 D|-------------------5/7|---------------|   
 A|--0-1-2---4---5-------|0--------------|x8
 E|----------------------|------0-2-3-4--|   
 C|      Bm      D       |A     E
 M|      1 & 2 & 3 & 4 & |1 & 2 & 3 & 4 &|


                     p p
 G|----------------------|---------------|   
 D|-------------------5/7|---------------|   
 A|--0-1-2-2-4-4-5-------|0--------------|x4
 E|----------------------|------0-2-3-4--|   
 C|      Bm      D       |A     E
 M|      1 & 2 & 3 & 4 & |1 & 2 & 3 & 4 &|





Comments


Popular Duran Duran tabs & chords
A View To A Kill Bass Tabs
New Religion Bass Tabs
Falling Down 1 Chords
Lady Xanax Chords
Ordinary World 1 Chords
Of Crime And Passion Tabs
Too Bad Youre So Beautiful Tabs
Dirty Great Monster Ukulele
Girls On Film Ukulele
The Chauffeur Ukulele


Song lyrics



↑ Back to top | Tablatures and chords are parodies/interpretations of the original songs. You may use it for private study, scholarship, research or language learning purposes only
© 2014 AZChords.com Contact us | Privacy policy | DMCA | Add/correct tabs | Request tabs | Top 50 tabs