» » »

Dumdum Boys, En Vill En Tabs (ver.1)

Artists:  A B C D E F G H I J K L M N O P Q R S T U V W X Y Z # 

En Vill En Tabs (ver.1)

Dumdum Boys Tabs
 Rating:
4/5 (4 votes)
En Vill En lessons Tabs too difficult? Try these video lessons and learn fast
                Intro
E|------------------------------|
H|--3--------3--3—3—2—3-3-3-0~~-|
G|--2--------2--4—2—2—2-2-2-0~~-|
D|-----2-h4-----5—4—2—4-4-4-0~~-|
A|------------------------------|
E|------------------------------|

Bassen og trommene spiller alene under ”Jeg er håpløst romantisk, ingen enkel ting. 
i hekken synger sangen min.”

E|-----------|
H|-----------|
G|-----------|
D|-4-p2-p0---|
A|---------2-|
E|-----------|

Mellomvers
E|----|----0~-------0~---|------------|
H|----|---3---3----3--3--|------------|
G|----|--2-----2--2----2-|---0--------|
D|-0~~|-0----------------|---0----0h2-|
A|-2~~|----------4-------|---2-0h2----|
E|-3~~|------------------|-3----------|

  Refreng
E|---------|----------------|--------|--------:|
H|--3--2---|-3-2-2-3-3-2----|--2-2---|--------:|
G|--2--2-0-|-2-2-2-2-2-2-0~-|--3-2-0-|--------:|
D|-0---2-0-|-0-2-2-4-4-2-0~-|-0--2-0-|----2p0-:|
A|----0--2-|---0---------2~-|----0-2-|-0h2----:|
E|-------3-|-------------3~-|------3-|--------:|


Vers
E|-------------|-0~--------------|-------------|-0~-------|
H|--3--3--3--3-|-0~--------------|--3--3--3--3-|-0~-------|
G|--2--4--2--4-|-0~--------------|--2--4--2--4-|-0~-------|
D|-4--5--4--5--|-2-2-2-0~-2-2-0~-|-4--5--4--5--|-2-2-2-0~-|
A|-------------|---2-2-0~-2-2-0~-|-------------|---2-2-0~-|
E|-------------|-----------------|-------------|----------|


E|-----------------------|
H|-----------------------|
G|-----------------------|
D|-0-4-p0-2-p0-4-p0------|
A|------------------2-p0-|
E|-----------------------|

Mellomvers
Refreng


Bridge
E|----------|------|--------|------|
H|----------|Jeg---|--------|Vi----|
G|--2-2-2-2-|maner-|--2-2-2-|viser-|
D|--0-0-0-0-|deg---|--0-0-0-|hva---|
A|-4---4----|fram--|-4---4--|vi----|
E|----------|------|--------|kan---|


Solo(ca som han spiller på live-versjonen på ”1001 watt”)
E|-----5-----------------------------|-10-------------------------------|
H|-5h7---7-5-----------7-5-----------|----10----------------------------|
G|-----------7-4---4-7-----7-4-7-4~~-|-------b11- r11-9-7---------------|
D|---------------7-------------------|--------------------7-------------|
A|-----------------------------------|----------------------9-7-5-5-5~~-|
E|-----------------------------------|----------------------------------|


E|------------------------|-10------------------10----|
H|------------------------|----10------------------10-|
G|-----4---b9-r9-p7---7~~-|-------b11-r11-9-b10-------|
D|-4-7---7----------9-----|---------------------------|
A|------------------------|---------------------------|
E|------------------------|---------------------------|

Vers
Mellomvers
Refreng
Bridge x2(litt andre markeringer)
Refreng


~ = La strengene klinge
h = hammer on
p = pull off
b = bend
r = release
: = gjenta
            
Submit corrections

comments powered by Disqus
↑ Back to top | Dumdum Boys Tabs for En Vill En. Lyrics for acoustic guitar and electric guitar. Tablatures and chords are parodies/interpretations of the original songs. You may use it for private study, scholarship, research or language learning purposes only