>
 >
En Vill En

En Vill En Guitar Tabs

Dumdum Boys - En Vill En chords, tabs, tablatures, lyrics

Guitar lessons | Add/correct | Request | Top 50 tabs Artists:  A B C D E F G H I J K L M N O P Q R S T U V W X Y Z 0-9

En Vill En Guitar Tabs – Dumdum Boys

CD, Sheet music, Poster

Do you like En Vill En? Share with your friends now
Tabs
Intro
E|------------------------------|
H|--3--------3--3𦠪3-3-3-0~~-|
G|--2--------2--4𦌾2-2-2-0~~-|
D|-----2-h4-----5𦴖4-4-4-0~~-|
A|------------------------------|
E|------------------------------|

Bassen og trommene spiller alene under 擩eg er h錺l鴖t romantisk, ingen enkel ting. 
i hekken synger sangen min.

E|-----------|
H|-----------|
G|-----------|
D|-4-p2-p0---|
A|---------2-|
E|-----------|

Mellomvers
E|----|----0~-------0~---|------------|
H|----|---3---3----3--3--|------------|
G|----|--2-----2--2----2-|---0--------|
D|-0~~|-0----------------|---0----0h2-|
A|-2~~|----------4-------|---2-0h2----|
E|-3~~|------------------|-3----------|

  Refreng
E|---------|----------------|--------|--------:|
H|--3--2---|-3-2-2-3-3-2----|--2-2---|--------:|
G|--2--2-0-|-2-2-2-2-2-2-0~-|--3-2-0-|--------:|
D|-0---2-0-|-0-2-2-4-4-2-0~-|-0--2-0-|----2p0-:|
A|----0--2-|---0---------2~-|----0-2-|-0h2----:|
E|-------3-|-------------3~-|------3-|--------:|


Vers
E|-------------|-0~--------------|-------------|-0~-------|
H|--3--3--3--3-|-0~--------------|--3--3--3--3-|-0~-------|
G|--2--4--2--4-|-0~--------------|--2--4--2--4-|-0~-------|
D|-4--5--4--5--|-2-2-2-0~-2-2-0~-|-4--5--4--5--|-2-2-2-0~-|
A|-------------|---2-2-0~-2-2-0~-|-------------|---2-2-0~-|
E|-------------|-----------------|-------------|----------|


E|-----------------------|
H|-----------------------|
G|-----------------------|
D|-0-4-p0-2-p0-4-p0------|
A|------------------2-p0-|
E|-----------------------|

Mellomvers
Refreng


Bridge
E|----------|------|--------|------|
H|----------|Jeg---|--------|Vi----|
G|--2-2-2-2-|maner-|--2-2-2-|viser-|
D|--0-0-0-0-|deg---|--0-0-0-|hva---|
A|-4---4----|fram--|-4---4--|vi----|
E|----------|------|--------|kan---|


Solo(ca som han spiller p live-versjonen p 1001 watt)
E|-----5-----------------------------|-10-------------------------------|
H|-5h7---7-5-----------7-5-----------|----10----------------------------|
G|-----------7-4---4-7-----7-4-7-4~~-|-------b11- r11-9-7---------------|
D|---------------7-------------------|--------------------7-------------|
A|-----------------------------------|----------------------9-7-5-5-5~~-|
E|-----------------------------------|----------------------------------|


E|------------------------|-10------------------10----|
H|------------------------|----10------------------10-|
G|-----4---b9-r9-p7---7~~-|-------b11-r11-9-b10-------|
D|-4-7---7----------9-----|---------------------------|
A|------------------------|---------------------------|
E|------------------------|---------------------------|

Vers
Mellomvers
Refreng
Bridge x2(litt andre markeringer)
Refreng


~ = La strengene klinge
h = hammer on
p = pull off
b = bend
r = release
: = gjenta





Comments


Popular Dumdum Boys tabs & chords
Enhjrning Bass Tabs
Splitter Pine Chords
Stjernesludd Chords
Stjernesludd 1 Chords
Blind Tabs
Enhjrning Tabs
Enhjrning Lead Guitar Tabs
Hagelangs Tabs
Splitter Pine Tabs
Splitter Pine Ukulele


Song lyrics



↑ Back to top | Tablatures and chords are parodies/interpretations of the original songs. You may use it for private study, scholarship, research or language learning purposes only
© 2014 AZChords.com Contact us | Privacy policy | DMCA | Add/correct tabs | Request tabs | Top 50 tabs