» » »

Enhjrning Bass tabs (ver.1)

Artists:  A B C D E F G H I J K L M N O P Q R S T U V W X Y Z # 

Enhjrning Bass tabs (ver.1)

Dumdum Boys
Rating:
0/5 (0 votes)

Hard to play? Try these video lessons and learn fast.
                Instrument: Rythm Guitar


Intro:


G:--------------------------------------------------------------------------------------|
D:--------------------------------------------------------------------------------------|
A:---5-5-4-5-4-------------5-5-4-5-4-------------5-5-4-5-4------------------------------|
E:---------------2222222---------------2222222---------------2222222---5b--5-5-5-5-0-2--|

Vers:

G:--------------------------------------------------------------------------------------------------------------------------|
D:--------------------------------------------------------------------------------------------------------------------------|
A:--------------------------------------------------------------------------------------------------------------------------|
E:----0-22-0-22-0-22-0-22-0-22-0-22-0-22--0-55-0-55-0-55-0-55--0-22-0-22-0-22-0-22-0-22-0-22-0-22-0-22-0-22-0-22-0-22-0-22--|

G:----------------------------------------------|
D:----------------------------------------------|
A:----------------------------------------------|
E:----0-55-0-55-0-55-0-55--0-22-0-22-0-22-0-22--|

Ref:

G:----------------------------------------------------------------------------------------------------------------------------------|
D:----------------------------------------------------------------------------------------------------------------------------------|
A:----------------------------------------------------------------------------------------------------------------------------------|
E:--00-2p0-5h2-0-22222222---00-2p0-5h2-0-22222222---00-2p0-5h2-0-22222222---00-2p0-5h2-0-22222222--5b-5-5-5-5-0-2-------------------|

Vers:

G:----------------------------------------------------------------------------------------------------------------------------------|
D:----------------------------------------------------------------------------------------------------------------------------------|
A:----------------------------------------------------------------------------------------------------------------------------------|
E:----0-22-0-22-0-22-0-22-0-22-0-22-0-22--0-55-0-55-0-55-0-55--0-22-0-22-0-22-0-22-0-22-0-22-0-22-0-22-0-22-0-22-0-22-0-22----------|

G:----------------------------------------------|
D:----------------------------------------------|
A:----------------------------------------------|
E:----0-55-0-55-0-55-0-55--0-22-0-22-0-22-0-22--|

Ref:

G:----------------------------------------------------------------------------------------------------------------------------------|
D:----------------------------------------------------------------------------------------------------------------------------------|
A:----------------------------------------------------------------------------------------------------------------------------------|
E:--00-2p0-5h2-0-22222222---00-2p0-5h2-0-22222222---00-2p0-5h2-0-22222222---00-2p0-5h2-0-22222222--5b-5-5-5-5-0-2-------------------|


Solo:

------------------------------------------------------------------------------------------------------------------------------------|
---4--3--2-----------------4--3--2-----------------4--3--2--------------------------------------------------------------------------|
-----------0-2p0-2-3h2p0-----------0-2p0-2-3h2p0-----------0-2p0-2-3h2p0--22222222-3333333------------------------------------------|
-------------------------------------------------------------------------------------------0-2--------------------------------------|

Vers:

G:----------------------------------------------------------------------------------------------------------------------------------|
D:----------------------------------------------------------------------------------------------------------------------------------|
A:----------------------------------------------------------------------------------------------------------------------------------|
E:----0-22-0-22-0-22-0-22-0-22-0-22-0-22--0-55-0-55-0-55-0-55--0-22-0-22-0-22-0-22-0-22-0-22-0-22-0-22-0-22-0-22-0-22-0-22----------|

G:----------------------------------------------------------------------------------------------------------------------------------|
D:----------------------------------------------------------------------------------------------------------------------------------|
A:----------------------------------------------------------------------------------------------------------------------------------|
E:----0-55-0-55-0-55-0-55--0-22-0-22-0-22-0-22--------------------------------------------------------------------------------------|


Ref/Outro:

G:------------------------------------------------------------------------------------------------------------------------------------|
D:------------------------------------------------------------------------------------------------------------------------------------|
A:------------------------------------------------------------------------------------------------------------------------------------|
E:--00-2p0-5h2-0-22222222---00-2p0-5h2-0-22222222---00-2p0-5h2-0-22222222---00-2p0-5h2-0-22222222--5b-5-5-5-5--00-2p0-5h2-0-22222222--|

G:----------------------------------------------------------------------------------------------------------------------------------|
D:----------------------------------------------------------------------------------------------------------------------------------|
A:----------------------------------------------------------------------------------------------------------------------------------|
E:--00-2p0-5h2-0-22222222---00-2p0-5h2-0-22222222---00-2p0-5h2-0-22222222---5b-5-5-5-5-0-2------------------------------------------|
            
Hard to play? Try these video lessons and learn fast. | Correct




comments powered by Disqus
↑ Back to top | Tablatures and chords are parodies/interpretations of the original songs. You may use it for private study, scholarship, research or language learning purposes only