» » »

Warwick Avenue Tabs (ver.2)

Artists:  A B C D E F G H I J K L M N O P Q R S T U V W X Y Z # 

Warwick Avenue Tabs (ver.2)

Duffy
Rating:
1/5 (2 votes)
Tabs too difficult? Try these video lessons and learn fast.
                (Intro)
e-----------------7-7------------------|
b-----------7---------10-10-10-10------|
g--5--0-0-0---9------------------------|
d---------------1----------------------| x4
a--------------------------------------|
e--------------------------------------|

e----7------------------------9---9--9-|
b---------1-1-1------------------------|
g--6---6---------------------5---------|
d----------------10--------------------| x2
a--------------------12----------------|
e-------------------------12-----------|
            
Tabs too difficult? Try these video lessons and learn fast.


comments powered by Disqus
↑ Back to top | Tablatures and chords are parodies/interpretations of the original songs. You may use it for private study, scholarship, research or language learning purposes only