» » »

Duffy, Mercy Bass tabs (ver.1)

Artists:  A B C D E F G H I J K L M N O P Q R S T U V W X Y Z # 

Mercy Bass tabs (ver.1)

Duffy Tabs
 Rating:
2.8/5 (10 votes)
Mercy lessons Tabs too difficult? Try these video lessons and learn fast
1
                -------------------------------------------------------------------------------
			     Mercy- Duffy
-------------------------------------------------------------------------------


This is a nice little song, and I’m surprised nobody has tabbed the bass part, it’s 
but powerful. The bass comes in on the ‘Yeah, Yeah, Yeah’s’ , and not before. That’s some 
effect. Enjoy, Capt. Groove.
Tuning: EADG
Into (Yeah, Yeah, Yeah)
G|--------------------|
D|----5---5-----------|	x8
A|--------------3-5---|
E|--------------------|
(Key change starts with the classic sting instruments)
G|--7---7------------|
D|----------5-7------|
A|-------------------|
E|-------------------|

G|----5---5-----------|
D|--------------3-5---|
A|--------------------|
E|--------------------|

Verse (I love you…)
G|--------------------|
D|----5---5-----------|	x8
A|--------------3-5---|
E|--------------------|

G|--7---7---------------5---5------------|
D|----------5-7-------------------3-5----|
A----------------------------------------|
E|---------------------------------------|

G|--------------------|
D|----5---5-----------|	x2
A|--------------3-5---|
E|--------------------|

G|--7---7---------------5---5-------------------------------------------------|
D|----------5-7-------------------3-5------5---5------------5---5-------------|
A|------------------------------------------------------3-5--------------3-5--|
E|----------------------------------------------------------------------------|

Chorus  (You got me begging….)

G|--------------------|
D|----5---5-----------|	x4
A|--------------3-5---|
E|--------------------|

G|----5---5-----------|
D|--------------3-5---|	x2
A|--------------------|
E|--------------------|

G|--------------------|
D|----5---5-----------|	x2
A|--------------3-5---|
E|--------------------|

G|--7---7---------------5---5-------------------------------------------------|
D|----------5-7-------------------3-5------5---5------------5---5-------------|
A|------------------------------------------------------3-5--------------3-5--|
E|----------------------------------------------------------------------------|


Verse

Chorus

Break (no bass, till guitar ‘twang’).

G|--------------|
D|---12\--------|
A|--------------|
E|--------------|

Chorus (x2)

Outro
G|--------------------|
D|----5---5-----------|	(Till Fade)
A|--------------3-5---|
E|--------------------|

| /  slide up
| \  slide down
| h  hammer-on
| p  pull-off
| ~  vibrato
| +  harmonic
| x  Mute note
===============================================================================
            
Submit corrections

comments powered by Disqus
↑ Back to top | Duffy Bass for Mercy. Lyrics for acoustic guitar and electric guitar. 1 Tablatures and chords are parodies/interpretations of the original songs. You may use it for private study, scholarship, research or language learning purposes only