» » »

Sleaze Factory Tabs (ver.1)

Artists:  A B C D E F G H I J K L M N O P Q R S T U V W X Y Z # 

Sleaze Factory Tabs (ver.1)

Duff Mckagans Loaded
Rating:
2/5 (1 vote)

Hard to play? Try these video lessons and learn fast.
                Sleaze Factory by Duff McKagans Loaded

Eb Tuning

INTRO
eb---------------------|
Bb---------------------|
Gb--9\7-7/9-9/12-12\9--| play twice 
Db--9\7-7/9-9/12-12\9--| before main riff
Ab--7\5-5/7-7/10-10\7--|
Eb---------------------|

MAIN RIFF
eb-----------------------------------------------------------------------|
Bb-----------------------------------------------------------------------|
Gb-----------------------------------------------------------------------|
Db--2-2-222-2-2-222--5-5-555-5-5-555--7-7-777--8-8-875--2-2-222-2-2-222--|
Ab--2-2-222-2-2-222--5-5-555-5-5-555--7-7-777--8-8-875--2-2-222-2-2-222--|
Eb--0-0-000-0-0-000--3-3-333-3-3-333--5-5-555--6-6-653--0-0-000-0-0-000--|

CHORUS
eb---------------------------------------------------------------------|
Bb---------------------------------------------------------------------|
Gb---------------------------------------------------------------------|
Db--22222222-22222222--55555555-55555555--77777777-88888888--22222222--|
Ab--22222222-22222222--55555555-55555555--77777777-88888888--22222222--|
Eb--00000000-00000000--33333333-33333333--55555555-66666666--00000000--|

eb------------|
Bb------------|
Gb------------|
Db--22222222--|
Ab--22222222--|
Eb--00000000--|

2.08 BRIDGE             x3
eb-----------------------|---------------------|
Bb-----------------------|---------------------|
Gb-----------------------|---------------------| play whole thing twice
Db--88888-7-5-2-2222222--|---------------------|
Ab--88888-7-5-2-2222222--|--55555555-77777777--|
Eb--66666-5-3-0-0000000--|--33333333-55555555--|

2.50 and OUTRO
eb--------------|
Bb--------------|
Gb--77--77--77--|
Db--77--77--77--|
Ab--55--55--55--|
Eb--------------|

There is already a tab of this but the intro and outro are incorrect

Any correction please comment
Thanks
            
Hard to play? Try these video lessons and learn fast. | Correct




comments powered by Disqus
↑ Back to top | Tablatures and chords are parodies/interpretations of the original songs. You may use it for private study, scholarship, research or language learning purposes only