» » »

Sick Tabs (ver.1)

Artists:  A B C D E F G H I J K L M N O P Q R S T U V W X Y Z # 

Sick Tabs (ver.1)

Duff Mckagans Loaded
Rating:
5/5 (1 vote)

Hard to play? Try these video lessons and learn fast.
                Sick by Duff McKagans Loaded

INTRO/MAIN RIFF  x16
e-----------------|
B-----------------|
G--3-3/4-3-3/4-3--|
D--3-3/4-3-3/4-3--|
A--1-1/2-1-1/2-1--|
E-----------------|

0.25
e-----------------------| this is played every so often during the verses
B-----------------------|
G--6-6-6-6-6-6-6-6-4-4--|
D--6-6-6-6-6-6-6-6-4-4--|
A--4-4-4-4-4-4-4-4-2-2--|
E-----------------------|

CHORUS 0.45
e------------------------------------------------------------------------|
B------------------------------------------------------------------------|
G--6666666666666666-4444444444444444-666666666666666--44444444-----------|
D--6666666666666666-4444444444444444-6666666666666666-44444444-44444444--|
A--4444444444444444-2222222222222222-4444444444444444-22222222-44444444--|
E--------------------------------------------------------------22222222--|

That's the whole song - it just repeats these parts until the end

Any corrections please comment
Thanks
            
Hard to play? Try these video lessons and learn fast. | Correct




comments powered by Disqus
↑ Back to top | Tablatures and chords are parodies/interpretations of the original songs. You may use it for private study, scholarship, research or language learning purposes only