» » »

Duff Mckagans Loaded, Seattlehead Tabs (ver.1)

Artists:  A B C D E F G H I J K L M N O P Q R S T U V W X Y Z # 

Seattlehead Tabs (ver.1)

Duff Mckagans Loaded Tabs
 Rating:
4.2/5 (5 votes)
Seattlehead lessons Tabs too difficult? Try these video lessons and learn fast
                Seattlehead by Duff McKagans Loaded

Eb Tuning

INTRO heavily palm muted x6
eb-------------------------|
Bb-------------------------|
Gb-------------------------|
Db--44-4-44-4-4-4-4-4-4-4--|
Ab--44-4-44-4-4-4-4-4-4-4--|
Eb--22-2-22-2-2-2-2-2-2-2--|

MAIN RIFF                          x8 but palm mute after played twice
eb-----------------------------------|
Bb-----------------------------------|
Gb--------------555-------------444--|
Db--4-4-4-4-4-4-555-5-5-5-5-5-5-444--|
Ab--4-4-4-4-4-4-333-5-5-5-5-5-5-222--|
Eb--2-2-2-2-2-2-----3-3-3-3-3-3------|

CHORUS                       x2         
eb---------------------------------|-------------------|
Bb---------------------------------|-------------------| played after 1st
Gb---------------------------------|-------------------| time only
Db--7-7-7-7--10-10-10-10--7-7-7-7--|--9br-9br-9br-9br--|
Ab--7-7-7-7--10-10-10-10--7-7-7-7--|-------------------|
Eb--5-5-5-5--8--8--8--8---5-5-5-5--|-------------------|

1.31                                                 x4
eb----------------------------------------------------|
Bb----------------------------------------------------|
Gb----------------------------------------------------|
Db--14-14-14-14-14-14-14-14--10-10-10-10-10-10-10-10--|
Ab--14-14-14-14-14-14-14-14--10-10-10-10-10-10-10-10--|
Eb--12-12-12-12-12-12-12-12--8--8--8--8--8--8--8--8---|

1.51             x2
eb----------------|
Bb----------------|
Gb----------------|
Db--77-22--55-22--|
Ab--77-22--55-22--|
Eb--55-00--33-00--|

2.01               x4
eb------------------|
Bb------------------|
Gb--77--99--77--77--|
Db--77--99--77--77--|
Ab--55--77--55--55--|
Eb------------------|

2.41                                         x4
eb--------------------------------------------|
Bb--------------------------------------------|
Gb--------------------------------------------|
Db--------------------------------------------|
Ab--------------------------------------------|
Eb--22-0-22-0-222-0-22--0-33-0-33-0-333-0-33--|

3.19            x16
eb--14~-12-14-12--|
Bb----------------|
Gb----------------|
Db----------------|
Ab----------------|
Eb----------------|

Any corrections please comment
Thanks
            
Submit corrections

comments powered by Disqus
↑ Back to top | Duff Mckagans Loaded Tabs for Seattlehead. Lyrics for acoustic guitar and electric guitar. Tablatures and chords are parodies/interpretations of the original songs. You may use it for private study, scholarship, research or language learning purposes only