» » »

Duff Mckagans Loaded, No Shame Bass tabs (ver.1)

Artists:  A B C D E F G H I J K L M N O P Q R S T U V W X Y Z # 

No Shame Bass tabs (ver.1)

Duff Mckagans Loaded Tabs
 Rating:
4/5 (7 votes)
No Shame lessons Tabs too difficult? Try these video lessons and learn fast
1
                -------------------------------------------------------------------------------
			     NO SHAME - Duff Mckagan's Loaded
-------------------------------------------------------------------------------


Tuning: Half Step Down


Intro

G|------------------------------------------------------------------|
D|------------------------------------------------------------------|
A|------------------5-5-5-5-5-7-5---------------------7-----7-5-----|
E|--3-3-3-3-3-3-3-5---------------7-5-5-5-5-5-5-5-5-5---5-5-----7-5-|

G|------------------------------------------------------------------|
D|------------------------------------------------------------------|
A|------------------5-5-5-5-5-7-5-----------------------------------|
E|--3-3-3-3-3-3-3-5---------------7-5-5-5-5-5-5-5-5-5-7-5-5-5-7-5-5-|


Verse

G|------------------------------------------------------------------|
D|------------------------------------------------------------------|
A|------------------5-5-5-5-5-7-5---------------------7-----7-5-----|
E|--3-3-3-3-3-3-3-5---------------7-5-5-5-5-5-5-5-5-5---5-5-----7-5-|

G|------------------------------------------------------------------|
D|------------------------------------------------------------------|
A|------------------5-5-5-5-5-7-5-----------------------------------|
E|--3-3-3-3-3-3-3-5---------------7-5-5-5-5-5-5-5-5-5-7-5-5-5-7-5-5-|

G|------------------------------------------------------------------|
D|------------------------------------------------------------------|
A|------------------5-5-5-5-5-7-5---------------------7-----7-5-----|
E|--3-3-3-3-3-3-3-5---------------7-5-5-5-5-5-5-5-5-5---5-5-----7-5-|

G|---------------------------------------| 
D|---------------------------------------| 
A|--------------5-7-------------5-7------| 
E|--7-7-7-7-7-7-----3-3-3-3-3-3-----5~~~-|

(2nd Time)

G|-----------------------------------------------------------------|
D|-----------------------------------------------------------------|
A|-----------------------------------------------------------------|
E|-5-5-5-5-5-5-5-5-5-5-5-5-5-5-5-5-3-3-3-3-3-3-3-3-3-3-3-3-3-3-3-3-| 


Chorus

G|------------------------------------------------|
D|------------------------------------------------|
A|------------------------------------------------| X2
E|--0-0--0-0---7-7--7-7---5-5--5-5---5-5--5-5h7p5-|

G|------------------------------------------------|
D|------------------------------------------------|
A|-------------5-5--5-5---------------------------| X2
E|--3-3--3-3--------------5-5--5-5---5-5--5-5h7p5-|


Breakdown

G|---------------------------|-------------------------|
D|---------------------------|-------------------------|
A|--5--4--2-------7----------|-5--4--2-------7---------|
E|-----------3--5---5--5h7p5-|----------3--5---5-5h7p5-|

G|-----------------------|---------------------|
D|-----------------------|---------------------|
A|--5--4--2-------7------|------------5-5--5-5-|
E|-----------3--5---5----|-3-3--3-3------------|

Solo

G|----------------------------------|
D|----------------------------------|
A|-------------5-5--5-5-------------|  X4
E|--3-3--3-3--------------5-5--5-5--|

INTRO
VERSE 1
CHORUS
VERSE 2
CHORUS
BREAKDOWN
SOLO
CHORUS
CHORUS


| /  slide up
| \  slide down
| h  hammer-on
| p  pull-off
| ~  vibrato
| +  harmonic
| x  Mute note
===============================================================================
            
Submit corrections

comments powered by Disqus
↑ Back to top | Duff Mckagans Loaded Bass for No Shame. Lyrics for acoustic guitar and electric guitar. 1 Tablatures and chords are parodies/interpretations of the original songs. You may use it for private study, scholarship, research or language learning purposes only