» » »

Duff Mckagans Loaded, Flatline Tabs (ver.1)

Artists:  A B C D E F G H I J K L M N O P Q R S T U V W X Y Z # 

Flatline Tabs (ver.1)

Duff Mckagans Loaded Tabs
 Rating:
4/5 (4 votes)
Flatline lessons Tabs too difficult? Try these video lessons and learn fast
                Flatline by Duff Mckagans Loaded

INTRO
e--------------------------|
B--------------------------|
G--10-11-7-11--10-11-7-11--|
D--10-11-7-11--10-11-7-11--|
A--8--9--5-9---8--9--5-9---|
E--------------------------|

VERSE/MAIN RIFF 0.17     x8
e-------------------------|
B-------------------------|
G--6-4-4------------------|
D--6-4-4-4-3/4-3/4-3/4\3--|
A--4-2-2-4-3/4-3/4-3/4\3--|
E--------2-1/2-1/2-1/2\1--|

0.25
e---------------------------------------------------|
B---------------------------------------------------|
G--16b-------15br-------15br--------------------16--|
D------15-16------18---------18-----------15-16-----|
A--------------------16---------14--13-14-----------|
E---------------------------------------------------|

PRE CHORUS 0.47
e-------------------------------------------------------------------|
B-------------------------------------------------------------------|
G------------------4-4-4-4-4-4-4-4-----------------9-9-9-9-9-9-9-9--|
D--4-4-4-4-4-4-4-4-4-4-4-4-4-4-4-4-7-7-7-7-7-7-7-7-9-9-9-9-9-9-9-9--|
A--4-4-4-4-4-4-4-4-2-2-2-2-2-2-2-2-7-7-7-7-7-7-7-7-7-7-7-7-7-7-7-7--|
E--2-2-2-2-2-2-2-2-----------------5-5-5-5-5-5-5-5------------------|

CHORUS 0.54                                                           x2
e----------------------------------------------------------------------|
B----------------------------------------------------------------------|
G--6-6-6-6-6-6-6-6--4-4-4-4-4-4-4-4-------------------4-4-4-4-4-4-4-4--|
D--6-6-6-6-6-6-6-6--4-4-4-4-4-4-4-4--4-4-4-4-4-4-4-4--4-4-4-4-4-4-4-4--|
A--4-4-4-4-4-4-4-4--2-2-2-2-2-2-2-2--4-4-4-4-4-4-4-4--2-2-2-2-2-2-2-2--|
E------------------------------------2-2-2-2-2-2-2-2-------------------|

1.09
e--14b-14-12-14p12--------------------14fb-14-14-14r-12------|
B------------------14-14-14p12-17p14--------------------14~--|
G------------------------------------------------------------|
D------------------------------------------------------------|
A------------------------------------------------------------|
E------------------------------------------------------------|
                                           ^play 
                                            these^
                                     whilst holding the bend  

2.09
e----------------------------------------------------------11b-------------|
B----------------------------------------------------12p10-----10------11-5|
G--9b-9br-7-11-9b-12b---------------11p9----13p11-----------------8-11-----|
D---------------------11-9--11p9---------11-------11-----------------------|
A--------------------------------11----------------------------------------|
E--------------------------------------------------------------------------|

Any corrections please comment
Thanks
            
Submit corrections

comments powered by Disqus
↑ Back to top | Duff Mckagans Loaded Tabs for Flatline. Lyrics for acoustic guitar and electric guitar. Tablatures and chords are parodies/interpretations of the original songs. You may use it for private study, scholarship, research or language learning purposes only