» » »

Turn So Cold Bass tabs (ver.2)

Artists:  A B C D E F G H I J K L M N O P Q R S T U V W X Y Z # 

Turn So Cold Bass tabs (ver.2)

Drowning Pool
Rating:
0/5 (0 votes)

Tabs too difficult? Try these video lessons and learn fast.
                The full song is said.

When drums come in (0.22)
----------|-----------|------------|------------|
----------|-----------|------------|------------|
----------|----------2|------------|------------|
--2-3-4---|--2-3-4----|--2-3-4--1-1|--2-3-4--111|


ref. x2
-----------------------------------------|
-----------------------------------------|
-----------------------------------------|
-2-2-2-2-2-2-2-2-4-4-4-4-4-4-4-4-4-4-4-4-|

-----------------------------------------|
-----------------------------------------|
-----------------------------------------|
-7-7-7-7-7-7-7-7-5-5-5-5-5-5-5-5-5-5-5-5-|

-----------------------------------------|
-----------------------------------------|
-----------------------------------------|
-2-2-2-2-2-2-2-2-4-4-4-4-4-4-4-4-4-4-4-4-|

----------------------|
----------------------|
----------------------|
-2-2-2-2--2-2-2--2-2-2| end of ref.



-------------------------------------|
-------------------------------------|
-----6-6--------6------6-6---76-6----|
-5-5-----5--5-7----5-5-----5---7-757-|

-------------------------------------|
-------------------------------------|
------66----77666-------66---7779999-|
----55--5--------77---55--5----------| x3

--------------------|
--------------------|
------66----6666666-|
----55--5-----------|

ref. x2
-----------------------------------------|
-----------------------------------------|
-----------------------------------------|
-2-2-2-2-2-2-2-2-4-4-4-4-4-4-4-4-4-4-4-4-|

-----------------------------------------|
-----------------------------------------|
-----------------------------------------|
-7-7-7-7-7-7-7-7-5-5-5-5-5-5-5-5-5-5-5-5-|

-----------------------------------------|
-----------------------------------------|
-----------------------------------------|
-2-2-2-2-2-2-2-2-4-4-4-4-4-4-4-4-4-4-4-4-|

----------------------|
----------------------|
----------------------|
-2-2-2-2--2-2-2--2-2-2| end of ref.

---------------------------------------------|
---------97-7--------------------------------|
--797-979--9--9-797----797-979-----------777-|
-9--------------------9--------7777-7777-----| x2

----------------|
----------------|
----------------|
2-22-----2-22---| x2

----------------|
----------------|
----------------|
22422----22422--|

-----------------------|
-----------------------|
-----------------------|
22422----224-let ring--|

ref. x2
-----------------------------------------|
-----------------------------------------|
-----------------------------------------|
-2-2-2-2-2-2-2-2-4-4-4-4-4-4-4-4-4-4-4-4-|

-----------------------------------------|
-----------------------------------------|
-----------------------------------------|
-7-7-7-7-7-7-7-7-5-5-5-5-5-5-5-5-5-5-5-5-|

-----------------------------------------|
-----------------------------------------|
-----------------------------------------|
-2-2-2-2-2-2-2-2-4-4-4-4-4-4-4-4-4-4-4-4-|

----------------------|
----------------------|
----------------------|
-2-2-2-2--2-2-2--2-2-2| end of ref.

---------------------------------------------|
---------97-7--------------------------------|
--797-979--9--9-797----797-979-----------777-|
-9--------------------9--------7777-7777-----| x2

----------------------------|
----------------------------|
----------------------------|
7-letring-----2-let ring----| x2
            
Tabs too difficult? Try these video lessons and learn fast.




comments powered by Disqus
↑ Back to top | Tablatures and chords are parodies/interpretations of the original songs. You may use it for private study, scholarship, research or language learning purposes only