» » »

Tear Away Five String Bass tabs (ver.1)

Artists:  A B C D E F G H I J K L M N O P Q R S T U V W X Y Z # 

Tear Away Five String Bass tabs (ver.1)

Drowning Pool
Rating:
0/5 (0 votes)

Tabs too difficult? Try these video lessons and learn fast.
                Intro:
G/----------------------------------------------|
D/----------------------------------------------|
A/----------------------------------------------|
E/----------------------------------------------|
B/-1-1-----1-1-----1-1-----1-1-----1-1-1--------|

Verse:
G/----------------------------------------------|
D/----------------------------------------------|
A/----------------------------------------------|
E/----------------------------------------------|
B/-1-1-----1-1-----1-1-----1-1-----1-2-2--------|

Chorus:
G/-------------------------------------------------------------|
D/-------------------------------------------------------------|
A/-------------------------------------------------------------|
E/-----------------------4--4-4--4---4-------------------------|
B/-1--1-1--1--1-1--1---------------------6--6--6-6---6---6-----|

Break down before guitar solo:
G/-----------------------|
D/-----------------------|
A/-----------------------|
E/-----------------------|
B/-2-1----2-1----2-1-----|     2x

That’s it I know its done on a 4 string but for all you clever people who have realized you hardly have to change tuning on a 5 string so this is for you
            
Tabs too difficult? Try these video lessons and learn fast.


comments powered by Disqus
↑ Back to top | Tablatures and chords are parodies/interpretations of the original songs. You may use it for private study, scholarship, research or language learning purposes only