>
 >
Tear Away 2

Tear Away 2 Guitar Tabs

Drowning Pool - Tear Away 2 chords, tabs, tablatures, lyrics

Guitar lessons | Add/correct | Request | Top 50 tabs Artists:  A B C D E F G H I J K L M N O P Q R S T U V W X Y Z 0-9

Tear Away 2 Guitar Tabs – Drowning Pool

CD, Sheet music, Poster

Do you like Tear Away 2? Share with your friends now
Bass TabsBass Tabs v2TabsTabs v2Tabs v3Tabs v4
Tuning: C g c f a d

Intro 1: w\flange
|-------------------------------------------------------------|
|-------------------------------8--8--8--8\7------------------|
|-8--8--8--8\7------------------x--x--x--x--------------------| x4
|-x--x--x--x--------------------x--x--x--x--------------------|
|-6--6--6--6\5---0-0--0---0-0-0-6--6--6--6\5---0-0--0---0-0-0-|
|----------------0-0--0---0-0-0----------------0-0--0---0-0-0-|
Pm               . .  .   . . .                . .  .   . . .

|-------------------------------------------------------------|
|-------------------------------8--8--8--8\7------------------|
|-8--8--8--8\7------------------x--x--x--x--------------------| x1
|-x--x--x--x--------------------x--x--x--x--------------------|
|-6--6--6--6\5---0-0--0---0-0-0-6--6--6--6\5---0-0--0---------|
|----------------0-0--0---0-0-0----------------0-0--0---------|
Pm               . .  .   . . .                . .  .

Intro 2: w/ wah/wah
|---------------------------------------------------------------------|
|---------------------------------------------------------------------|
|-/14-14-14-14-14--14-14-12-12--12-12-12-12\11--11-11-\7--7-7-7-\-5-5-| x2
|--x--x--x--x--x---x--x--x--x---x--x--x--x------x--x---x--x-x-x---x-x-|
|-/12-12-12-12-12--12-12-10-10--10-10-10-10\9---9--9--\5--5-5-5-\-3-3-|
|---------------------------------------------------------------------|

Verse 1:
|-----------------------------------------------------------------|
|--------------------8--8--8--8\7---------------------------------|
|--------------------x--x--x--x----------------------8--8--8--8\7-|
|--------------------x--x--x--x----------------------x--x--x--x---|
|-0-0--0-0--0-0--0-0-6--6--6--6\5-0-0--0-0--0-0--0-0-6--6--6--6\5-|
|-0-0--0-0--0-0--0-0--------------0-0--0-0--0-0--0-0--------------|
Pm. .  . .  . .  . .              . .  . .  . .  . .

|-----------------------------------------------------------------|
|--------------------8--8--8--8\7---------------------------------|
|--------------------x--x--x--x------------------------------7----|
|--------------------x--x--x--x------------------------------x----|
|-0-0--0-0--0-0--0-0-6--6--6--6\5-0-0--0-0--0-0--0-0---5-5-5-5----|
|-0-0--0-0--0-0--0-0--------------0-0--0-0--0-0--0-0---0-0-0-0----|
Pm. .  . .  . .  . .              . .  . .  . .  . .   . .

|-----------------------------------------------------------------|
|--------------------8--8--8--8\7---------------------------------|
|--------------------x--x--x--x----------------------8--8--8--8\7-|
|--------------------x--x--x--x----------------------x--x--x--x---|
|-0-0--0-0--0-0--0-0-6--6--6--6\5-0-0--0-0--0-0--0-0-6--6--6--6\5-|
|-0-0--0-0--0-0--0-0--------------0-0--0-0--0-0--0-0--------------|
Pm. .  . .  . .  . .              . .  . .  . .  . .

|----------------------------------------------------------|
|--------------------8--8--8--8\7--------------8--8--8--8--|
|--------------------x--x--x--x----------------x--x--x--x--|
|--------------------x--x--x--x----------------x--x--x--x--|
|-0-0--0-0--0-0--0-0-6--6--6--6\5-0-0---0--0-0-6--6--6--6\-|
|-0-0--0-0--0-0--0-0--------------0-0---0--0-0-0--0--0--0--|
Pm. .  . .  . .  . .              . .   .  . .

Chorus 1:
|-------------------------------------------------|
|-------------------------------------------------|
|---------7--7------7-----------------------------| x2
|-0---0-0-x--x-0--0-x-0-0-8---8-8--8--8\-5-5--5-5-|
|-0---0-0-5--5-0--0-5-0-0-8---8-8--8--8\-5-5--5-5-|
|-0---0-0-0--0-0--0-0-0-0-8---8-8--8--8\-5-5--5-5-|

|-------------------------------------------------|
|---------------------------------------/8-8--8-8-|
|---------7--7------7-------------------/7-7--7-7-| x1
|-0---0-0-x--x-0--0-x-0-0-8---8-8--8--8\/5-5--5-5-|
|-0---0-0-5--5-0--0-5-0-0-8---8-8--8--8\----------|
|-0---0-0-0--0-0--0-0-0-0-8---8-8--8--8\----------|

|---------------------------------------------------------------------|
|---------------------------------------------------------------------|
|-/14-14-14-14-14--14-14-12-12--12-12-12-12\11--11-11-\7--7-7-7-\-5-5-|
|--x--x--x--x--x---x--x--x--x---x--x--x--x------x--x---x--x-x-x---x-x-|
|-/12-12-12-12-12--12-12-10-10--10-10-10-10\9---9--9--\5--5-5-5-\-3-3-|
|---------------------------------------------------------------------|

Verse 2:
|-----------------------------------------------------------------|
|--------------------8--8--8--8\7---------------------------------|
|--------------------x--x--x--x----------------------8--8--8--8\7-|
|--------------------x--x--x--x----------------------x--x--x--x---|
|-0-0--0-0--0-0--0-0-6--6--6--6\5-0-0--0-0--0-0--0-0-6--6--6--6\5-|
|-0-0--0-0--0-0--0-0--------------0-0--0-0--0-0--0-0--------------|
Pm. .  . .  . .  . .              . .  . .  . .  . .

|-----------------------------------------------------------------|
|--------------------8--8--8--8\7---------------------------------|
|--------------------x--x--x--x------------------------------7----|
|--------------------x--x--x--x------------------------------x----|
|-0-0--0-0--0-0--0-0-6--6--6--6\5-0-0--0-0--0-0--0-0---5-5-5-5----|
|-0-0--0-0--0-0--0-0--------------0-0--0-0--0-0--0-0---0-0-0-0----|
Pm. .  . .  . .  . .              . .  . .  . .  . .   . .

|-----------------------------------------------------------------|
|--------------------8--8--8--8\7---------------------------------|
|--------------------x--x--x--x----------------------8--8--8--8\7-|
|--------------------x--x--x--x----------------------x--x--x--x---|
|-0-0--0-0--0-0--0-0-6--6--6--6\5-0-0--0-0--0-0--0-0-6--6--6--6\5-|
|-0-0--0-0--0-0--0-0--------------0-0--0-0--0-0--0-0--------------|
Pm. .  . .  . .  . .              . .  . .  . .  . .

|-----------------------------------------------------------------|
|--------------------8--8--8--8\7---------------------------------|
|--------------------x--x--x--x------------------------------7\---|
|--------------------x--x--x--x------------------------------x----|
|-0-0--0-0--0-0--0-0-6--6--6--6\5----------------------------5\---|
|-0-0--0-0--0-0--0-0-----------------------------------------0----|
Pm. .  . .  . .  . .

Chorus 2:
|-------------------------------------------------|
|-------------------------------------------------|
|---------7--7------7-----------------------------| x2
|-0---0-0-x--x-0--0-x-0-0-8---8-8--8--8\-5-5--5-5-|
|-0---0-0-5--5-0--0-5-0-0-8---8-8--8--8\-5-5--5-5-|
|-0---0-0-0--0-0--0-0-0-0-8---8-8--8--8\-5-5--5-5-|

|-------------------------------------------------|
|---------------------------------------/8-8--8-8-|
|---------7--7------7-------------------/7-7--7-7-| x1
|-0---0-0-x--x-0--0-x-0-0-8---8-8--8--8\/5-5--5-5-|
|-0---0-0-5--5-0--0-5-0-0-8---8-8--8--8\----------|
|-0---0-0-0--0-0--0-0-0-0-8---8-8--8--8\----------|

|-------------------------------------------------|
|-------------------------------------------------|
|---------7--7------7-----------------------------|
|-0---0-0-x--x-0--0-x-0-0-8---8-8--8--8\-5-5--5-5-|
|-0---0-0-5--5-0--0-5-0-0-8---8-8--8--8\-5-5--5-5-|
|-0---0-0-0--0-0--0-0-0-0-8---8-8--8--8\-5-5--5-5-|

Interlude:
|-------------------------------------------------|
|-------------------------------------------------|
|-------------------------------------------------|
|-1-0--1-0--1-0-----------1-0--1-0--1-0-----------|
|-1-0--1-0--1-0-----------1-0--1-0--1-0-----------|
|-1-0--1-0--1-0-----------1-0--1-0--1-0-----------|

Solo: w/wah
|-5//17---17-17--17--17-17--17-17-17-15--15-15--15-15--18-18--17-18-17--13-|
|--------------------------------------------------------------------------|
|--------------------------------------------------------------------------|
|--------------------------------------------------------------------------|
|--------------------------------------------------------------------------|
|--------------------------------------------------------------------------|

|-12-10--10\8--8--8--8-8--11-11--10\---20br-20br-20br--20-20-17--20-17--15-|
|--------------------------------------------------------------------------|
|--------------------------------------------------------------------------|
|--------------------------------------------------------------------------|
|--------------------------------------------------------------------------|
|--------------------------------------------------------------------------|

|-15br\---8--10-8-10-8--8--8-8--8\5--5-5--5--5-8-8\-|
|---------------------------------------------------|
|---------------------------------------------------|
|---------------------------------------------------|
|---------------------------------------------------|
|---------------------------------------------------|

Chorus 3:
|-------------------------------------------------|
|-------------------------------------------------|
|---------7--7------7-----------------------------| x4
|-0---0-0-x--x-0--0-x-0-0-8---8-8--8--8\-5-5--5-5-|
|-0---0-0-5--5-0--0-5-0-0-8---8-8--8--8\-5-5--5-5-|
|-0---0-0-0--0-0--0-0-0-0-8---8-8--8--8\-5-5--5-5-|

Outro / chorus 4: clean w/effect
|----------------------------------------------------------|
|----------------------------------------------------------|
|-------------7-------------------7\3-----3/7---------7----| x2
|---------0-------0-----------0-------0-0-----------5------|
|-----5-------------------5-----------------------5--------|
|-0-------------------0-------------------------5----------|

Maybe is something like this:
|----------------------------------------------|--------|
|----------------------------------------------|--------|
|-------7-------------------7\3-----3---3--3/7-|---7----|
|-0---0----0--0-0--0--0-0-0-----0-0---0--------|-0------|
|----------------------------------------------|--------|
|----------------------------------------------|--------|

About the intro and the verses, C.J. plays 

d---    ----
a-8-    ----
f-x- or -12-   But i think he play in the first way
c-x-    -x--
g-6-    -10-
C---    ----


Tablature Keys:

h - hammer on
p - pull off
b - bend
r - relese bend
~ - sustain
/ - slide up
\ - slide down
v - vibrato
* - trill
x - mute string
pm - palm mute
nh - natural harmonic
ph - pitch harmonic
x\\\ - pick scrape (direction same as slide)





Comments


Popular Drowning Pool tabs & chords
Bodies Bass Tabs
Bodies 2 Bass Tabs
Sinner 3 Bass Tabs
Sinner Ver Bass Tabs
Bodies Tabs
Feel Like I Do 2 Tabs
Love And War 2 Tabs
Nothingness (Intro) Tabs
Pity Tabs
Time To Play Game Tabs


Song lyrics



↑ Back to top | Tablatures and chords are parodies/interpretations of the original songs. You may use it for private study, scholarship, research or language learning purposes only
© 2014 AZChords.com Contact us | Privacy policy | DMCA | Add/correct tabs | Request tabs | Top 50 tabs