» » »

Drowning Pool, Tear Away Tabs (ver.2)

Artists:  A B C D E F G H I J K L M N O P Q R S T U V W X Y Z # 

Tear Away Tabs (ver.2)

Drowning Pool Tabs
 Rating:
4/5 (4 votes)
Tear Away lessons Tabs too difficult? Try these video lessons and learn fast
1
                ARTIST- DROWNING POOL
TITLE- TEAR AWAY solo

h-hammer om
p-pulloff
b-bend 
r-release bend
Drop D tuning- C G C F A d

D|-------------------------------------------------------------
A|---10-------------11------10---11—10-------------------
F|-----------12----------------------------------10—9-------
C|----------------------------------------------------------12-
G|--------------------------------------------------------------
C|--------------------------------------------------------------

            
D|--------------------------------------------------------------------
A|------------------------—--------13b15r13----13b15r13----13b15r13----
F|----------------------------------------------------------------------
C|----10-------\13--12---------------------------------------------------
G|-----------------------------------------------------------------------
C|----------------------------0--------------------------------------------
              ^tremolo picking
    
D|------------------------------------------------------------------------------
A|--10h13p10-----13---10h13p10--------------------------------------------------
F|-------------------------------------12---12b14r12----------------------------
C|------------------------------------------------------------12—10—12--10—12-10-
G|-------------------------------------------------------------------------------
C|-------------------------------------------------------------------------------

D|---------------------
A|---10---------------
F|----------------------
C|--------------10---
G|-------------------
C|--------------------
use a wah pedal or atleast a wah-bar
            
Submit corrections

comments powered by Disqus
↑ Back to top | Drowning Pool Tabs for Tear Away. Lyrics for acoustic guitar and electric guitar. 1 Tablatures and chords are parodies/interpretations of the original songs. You may use it for private study, scholarship, research or language learning purposes only