» » »

Drowning Pool, Tear Away Bass tabs (ver.1)

Artists:  A B C D E F G H I J K L M N O P Q R S T U V W X Y Z # 

Tear Away Bass tabs (ver.1)

Drowning Pool Tabs
 Rating:
4/5 (4 votes)
Tear Away lessons Tabs too difficult? Try these video lessons and learn fast
                Tuning: C,G,C,F


Intro: 
F/-----------------------------------------| 
C/-----------------------------------------| 
G/-----------------------------------------| 
C/-0-0-----0-0-----0-0-----0-0-----0-0-0---| 


Verse: 
F/-----------------------------------------| 
C/-----------------------------------------| 
G/-----------------------------------------| 
C/-0-0-----0-0-----0-0-----0-0-----0-1-1---| 


Chorus: 
F/-------------------------------------------------------| 
C/-------------------------------------------------------| 
G/--------------------1--1-1--1---1----------------------| 
C/-0--0-0--0--0-0--0-----------------5--5--5-5---5---5---| 


Break thing, its before the guitar solo 
F/---------------------| 
C/---------------------| 
G/---------------------| 
C/-1-0----1-0----1-0---| 2x 



guitar solo: its the same thing as the chorus. 
            
Submit corrections

comments powered by Disqus
↑ Back to top | Drowning Pool Bass for Tear Away. Lyrics for acoustic guitar and electric guitar. Tablatures and chords are parodies/interpretations of the original songs. You may use it for private study, scholarship, research or language learning purposes only