>
 >
Soldiers 2

Soldiers 2 Bass Tabs

Drowning Pool - Soldiers 2 chords, tabs, tablatures, lyrics

Guitar lessons | Add/correct | Request | Top 50 tabs Artists:  A B C D E F G H I J K L M N O P Q R S T U V W X Y Z 0-9

Soldiers 2 Bass Tabs – Drowning Pool

CD, Sheet music, Poster

Do you like Soldiers 2? Share with your friends now
Bass TabsBass Tabs v2Tabs
----------------------------------------------------------------------------
			     Soldiers - Drowning Pool
----------------------------------------------------------------------------


Tuning: 5 String Bass (BEADG)

Intro:
G|------------------------------------------------------|
D|------------------------------------------------------|
A|------------------------------------------------------|
E|------------------------------------------------------|
B|-2-2---------0-0----------2-2-------0--0--0---0-12\---|

G|---------------------------------------------------------------|
D|---------------------------------------------------------------|
A|---------------------------------------------------------------|
E|---------------------------------------------------------------|
B|-2-2----2-22-----0-0----0-00----2-2----2-22---0--0--0---0-12\--|

Pre-verse:
G|-------------------------------------|
D|--------------------222555----------:|
A|-----------------444------222255-----|
E|------------------------------------:|
B|-------------------------------------|

Verse:
G|---------------|
D|---------------|
A|---------------| X3
E|---------------|
B|2--5--8-0-2-3--|

Pre-Chorus:
G|------------------------------|
D|------------------------------|
A|------------------------------|
E|------------------------------|
B|666000666000-6-6660006666000--|

Chorus:
G|------------------------------------------------|
D|------------------------------------------------|
A|------------------------------------------------|
E|------------------------------------------------|
B|2-2------0-0--------2-2------0--0--0--0-12\-----|

G|-----------------------------------------------------|
D|-----------------------------------------------------|
A|-----------------------------------------------------|
E|-----------------------------------------------------|
B|2-2---2-22----0-0----0-00----2-2----0--0--0--0-12\---|

Play the Verse During the Guitar Solo

Don't Play Anything During the Acoustic Break

Until This
Break:
G|-------------------------------------------|
D|-------------------------------------------|
A|-------------------------------------------|
E|-------------------------------------------|
B|2-2-----0-0------2-2----0--0--0---0-12\----|


| /  slide up
| \  slide down
| h  hammer-on
| p  pull-off
| ~  vibrato
| +  harmonic
| x  Mute note
============================================================================





Comments


Popular Drowning Pool tabs & chords
Bodies Five String Bass Tabs
Bodies For A 5 String Bass Tabs
Sinner 3 Bass Tabs
Step Up Bass Tabs
Tear Away 2 Bass Tabs
37 Stitches Tabs
Full Circle Tabs
Mute 1 Tabs
Sermon 1 Tabs
Tear Away 1 Tabs


Song lyrics



↑ Back to top | Tablatures and chords are parodies/interpretations of the original songs. You may use it for private study, scholarship, research or language learning purposes only
© 2014 AZChords.com Contact us | Privacy policy | DMCA | Add/correct tabs | Request tabs | Top 50 tabs