>
 >
Sinner Ver

Sinner Ver Bass Tabs

Drowning Pool - Sinner Ver chords, tabs, tablatures, lyrics

Guitar lessons | Add/correct | Request | Top 50 tabs Artists:  A B C D E F G H I J K L M N O P Q R S T U V W X Y Z 0-9

Sinner Ver Bass Tabs – Drowning Pool

CD, Sheet music, Poster

Do you like Sinner Ver? Share with your friends now
Bass Tabs
Moderate Heavy Rock

Tuning B F# B G

Intro:(0:00)
G|----------------------------------------------------------------------------------|
B|----------------------------------------------------------------------------------|
F|----------------------------------------------------------------------------------|
B|-0~~-0----0---0----1----1----3-----3--0~----0-----0----0-----1----1----4---4---3~-|

G|-------------------------------------------------------------------------------||
B|-------------------------------------------------------------------------------||
F|-------------------------------------------------------------------------------||
B|---3---3---3-----3---3----3---3-2~--(2)---2----2----2----1-1-1----1--1--1--0---||

Verse:      Bend me               shape  me               misdirect me.............
G|--------------------------------------------------------------------------------|
B|--------------------------------------------------------------------------------|
F|--------------------------------------------------------------------------------|
B|--0--0------1-------2--------1-------0~--------0----0-------1------2----3---0~--|
                           
                          its all the same to me..............
G|----------------------------------------------------------------------------------|
B|----------------------------------------------------------------------------------|
F|----------------------------------------------------------------------------------|
B|-0---0----1-------2----2----1------0~-----0---0-----1----1----2----2----3-----0~--|
               look at all this.....   
G|----------------------------------------------------------------------------------|
B|----------------------------------------------------------------------------------|
F|----------------------------------------------------------------------------------|
B|-0----0----0-----1-----1------1-----0~---(0)--0----0-----0----1-----1----3-----0~-|
         Look at all this useless junk   upon         the  cross
G|------------------------------------------------------------------------------||
B|------------------------------------------------------------------------------||
F|-----------------------------------------------------3p0----------------------||
B|--0---0----0----1----1----1-----0~---(0)--0--0--0-----------7--6--5--3--5--3--||

Chorus:     You   look   at    me........
G|-----------------------------------------------------------------------------|
B|-----------------------------------------------------------------------------|
F|-----------0-----5~--(5)---5---5-------------------3-------------------------|
B|----0--------------------------------2-------3-----------3~--(3)--0---2---3--|

                  Understand........
G|---------------------------------------------------------------------------------|
B|------------------------------------------------------5-----(5)-----5------------|
F|-------0------------------5-----0------3-------3---------------------------------|
B|-0-----------0~-----0----------------------------------------------------3----2--|

            Dont corner ........
G|---------------------------------------------------------------------------|
B|---------------------------------------------------------------------------|
F|----------0----5---(5)---5---5-----------------3---------------------------|
B|-----0-----------------------------2------3--------3----(3)-----0--2--3----|
 
             Raise        your     hands........            
G|----------------------------------|---------------------------------------------|
B|----------------------------------|---------------------------------------------|
F|--------0----5~-----5----5--------|--5---3-----3---3----------------------------|
B|-0----------------------------0---|---------------------3----3-----3--3--5--0---|

G|---------------------------------------------------------------------------------|
B|---------------------------------------------------------------------------------|
F|---------------------------------------------------------------------------------|
B|-0~~--0----0---0-----1----1----3-----3--0~---0----0---0-----1----1----4---4---3~-|

G|----------------------------------------------------------------------|
B|----------------------------------------------------------------------|
F|----------------------------------------------------------------------|
B|-----3--3--3--3----3--3----3---3---2--2--2--2---1--1---1----1---1--0--|

Bridge 1:
G|------------------------------------------------------------------------|
B|------------------------------------------------------------------------|
F|------------------------------------------------------------------------|
B|---0~~~----0--3~~~~-------3--5~~~~--------6--5--------6--5------12\-----|

Bridge 2: (Fast)
G|-----------------------||
B|-----------------------||o
F|-----------------------||o Repeat many times
B|---6-5--0-5--6-5--0505-||

Outro Chorus: You look at me.........
G|-------------------------------------------------------------|
B|-------------------------------------------------------------|
F|---------0---5---(5)--5--5-----------------------------------|
B|----0------------------------2----3-----0--3---(3)--0--3--5--|

          Raise your hands......
G|---------------------------------------------------------||
B|-------------------------2--------------5---(5)----------||O
F|------0--5--(5)--5--5---------3----3---------------------||O 2X
B|--0---------------------------------------------3--3--2--||
              You're a sinner
G|---------------------------------------|
B|---------------------------------------|
F|--3-3--3-3-----3--3----3-3-3-5-5-(5)\--|
B|---------------------------------------|

Thats it, 100% accurate.  Enjoy!





Comments


Popular Drowning Pool tabs & chords
Bodies 2 Bass Tabs
Soldiers Bass Tabs
Turn So Cold Bass Tabs
Follow 1 Tabs
I Am 1 Tabs
Killing Me Intro Tabs
Sinner Tabs
The Game Tabs
This Life Tabs
Turn So Cold Intro Tabs


Song lyrics



↑ Back to top | Tablatures and chords are parodies/interpretations of the original songs. You may use it for private study, scholarship, research or language learning purposes only
© 2014 AZChords.com Contact us | Privacy policy | DMCA | Add/correct tabs | Request tabs | Top 50 tabs