>
 >
Sinner 2

Sinner 2 Bass Tabs

Drowning Pool - Sinner 2 chords, tabs, tablatures, lyrics

Guitar lessons | Add/correct | Request | Top 50 tabs Artists:  A B C D E F G H I J K L M N O P Q R S T U V W X Y Z 0-9

Sinner 2 Bass Tabs – Drowning Pool

CD, Sheet music, Poster

Do you like Sinner 2? Share with your friends now
Bass Tabs
Intro:
G/-----------------------------------------|
D/-----------------------------------------|
A/-----------------------------------------|
E/-----------------------------------------|
B/-0----0-0-0-1-1-3-3-0----0-0-0-1-1-4-4-3-|

G/---------------------------------------------------|
D/---------------------------------------------------|
A/----------------------------------------------------|
E/----------------------------------------------------|
B/-3-3-3---3-3-3-32--2-2-21-1-1---1-1-1-0-|

Verse:
G/---------------------------------|
D/---------------------------------|
A/---------------------------------|
E/---------------------------------|
B/-0-012-21---00-01-1-2-2-3-0-|

Pre-Chorus:
G/----------------------------------|
D/----------------------------------|
A/----------------------------------|
E/----------------------------------|
B/-0-0-0---1-1-10----0-0-01-1-3-0-|

Little Thing Before Chorus:
G/--------------|
D/--------------|
A/--------------|
E/--------------|
B/---5p2-765353-|

Chorus 1:
G/--------------------------------|
D/--------------------------------|
A/--------------------------------|
E/------3---3-3--------3----------|
B/-0-3----------2-3-------3-0-2-3-|

Chorus 2:
G/----------------------------|
D/----------------------------|
A/-----------------------3-3--|
E/-------------3----1-1-------|
B/-03-0-0---3------------3-2-|

Back to chorus 1 

Chorus 3:
G/----------------------------------------|
D/----------------------------------------|
A/----------------------------------------|
E/----3---3-3-----31-1-1-----------------|
B/-0-3--------0---------------3-3-3-3-5-0-|

G/-----------------------------------|
D/-----------------------------------|
A/-----------------------------------|
E/-----------------------------------|
B/-0-0-0-0-1-1-3-3-0-0-0-0-1-1-4-4-3-|

G/-------------------------------------|
D/-------------------------------------|
A/-------------------------------------|
E/-------------------------------------|
B/-3-3-3-33-33-32-2-2-2-1-1-1-1-1-0-|

Bridge:
G/--------------------------------------|
D/--------------------------------------|
A/--------------------------------------|
E/--------------------------------------|
B/-0~~~--0-3~~~--3-5~~~---6-5-6-5---12\-|

Interlude:
G/-------------------|
D/-------------------|
A/-------------------|
E/-------------------|
B/-6-5-0-5-6-5-05-05-|

End:
G/------------------------------|
D/------------------------------|
A/------------------------------|
E/-1-1--1-1----1-11-1-1-3-3-3\-|
B/------------------------------|





Comments


Popular Drowning Pool tabs & chords
Bodies Five String Bass Tabs
37 Stitches Tabs
Feel Like I Do Intro Tabs
I Am 1 Tabs
Killin Me Intro Tabs
More Than Worthless Tabs
Nothingness (Intro) Tabs
Rise Up Intro Tabs
Sermon 1 Tabs
Think Tabs


Song lyrics



↑ Back to top | Tablatures and chords are parodies/interpretations of the original songs. You may use it for private study, scholarship, research or language learning purposes only
© 2014 AZChords.com Contact us | Privacy policy | DMCA | Add/correct tabs | Request tabs | Top 50 tabs