» » »

Drowning Pool, Sinner Bass tabs (ver.1)

Artists:  A B C D E F G H I J K L M N O P Q R S T U V W X Y Z # 

Sinner Bass tabs (ver.1)

Drowning Pool Tabs
Rating:
0/5 (0 votes)
Sinner  lessons Tabs too difficult? Try these video lessons and learn fast
                (2)
Intro:
G/-----------------------------------------|
D/-----------------------------------------|
A/-----------------------------------------|
E/-----------------------------------------|
B/-0----0-0-0-1-1-3-3-0----0-0-0-1-1-4-4-3-|

G/---------------------------------------------------|
D/---------------------------------------------------|
A/----------------------------------------------------|
E/----------------------------------------------------|
B/-3-3-3---3-3-3-32--2-2-2—1-1-1---1-1-1-0-|

Verse:
G/---------------------------------|
D/---------------------------------|
A/---------------------------------|
E/---------------------------------|
B/-0-0—1—2-2—1---0—0-0—1-1-2-2-3-0-|

Pre-Chorus:
G/----------------------------------|
D/----------------------------------|
A/----------------------------------|
E/----------------------------------|
B/-0-0-0---1-1-1—0----0-0-0—1-1-3-0-|

Little Thing Before Chorus:
G/--------------|
D/--------------|
A/--------------|
E/--------------|
B/---5p2-765353-|

Chorus 1:
G/--------------------------------|
D/--------------------------------|
A/--------------------------------|
E/------3---3-3--------3----------|
B/-0-3----------2-3-------3-0-2-3-|

Chorus 2:
G/----------------------------|
D/----------------------------|
A/-----------------------3-3--|
E/-------------3----1-1-------|
B/-0—3-0-0---3------------3-2-|

Back to chorus 1 

Chorus 3:
G/----------------------------------------|
D/----------------------------------------|
A/----------------------------------------|
E/----3---3-3-----3—1-1-1-----------------|
B/-0-3--------0---------------3-3-3-3-5-0-|

G/-----------------------------------|
D/-----------------------------------|
A/-----------------------------------|
E/-----------------------------------|
B/-0-0-0-0-1-1-3-3-0-0-0-0-1-1-4-4-3-|

G/-------------------------------------|
D/-------------------------------------|
A/-------------------------------------|
E/-------------------------------------|
B/-3-3-3-3—3-3—3-3—2-2-2-2-1-1-1-1-1-0-|

Bridge:
G/--------------------------------------|
D/--------------------------------------|
A/--------------------------------------|
E/--------------------------------------|
B/-0~~~--0-3~~~--3-5~~~---6-5-6-5---12\-|

Interlude:
G/-------------------|
D/-------------------|
A/-------------------|
E/-------------------|
B/-6-5-0-5-6-5-05-05-|

End:
G/------------------------------|
D/------------------------------|
A/------------------------------|
E/-1-1--1-1----1-1—1-1-1-3-3-3\-|
B/------------------------------|
            

comments powered by Disqus
↑ Back to top | Drowning Pool Bass for Sinner. Lyrics for acoustic guitar and electric guitar. Tablatures and chords are parodies/interpretations of the original songs. You may use it for private study, scholarship, research or language learning purposes only