>
 >
Mute

Mute Guitar Tabs

Drowning Pool - Mute chords, tabs, tablatures, lyrics

Guitar lessons | Add/correct | Request | Top 50 tabs Artists:  A B C D E F G H I J K L M N O P Q R S T U V W X Y Z 0-9

Mute Guitar Tabs – Drowning Pool

CD, Sheet music, Poster

Do you like Mute? Share with your friends now
TabsTabs v2
Tuning: C g c f a d

Intro 1: w/effect
|-----------------------------------------|
|-----------------------------------------|
|-----------------------------------------| x2
|-------2---3-3-3/5-5-------2---3-3-3-0-0-|
|-----2-----3-3-3/5-5-----2-----3-3-3-0-0-|
|-0h2-----3-3-3-3/5-5-0h2-----3-3-3-3-0-0-|

Intro 2: w/ wah/wah
|-------------------------------------------------------------|
|-------------------------------------------------------------|
|-7/9-9-9--9/10-10--10-10/12-12--7/9-9-9--9/10-10-10-107-7----| x4
|-x---x-x--x----x---x--x-----x---x---x-x--x----x--x--x----x---|
|-5/7-7-7--7/8--8---8--8-/10-10--5/7-7-7--7/8--8--8--8-5-5----|
|-------------------------------------------------------------|

Verse 1: w/effect
|-------|-------------------------------------------------------------|
|-------|-------------------------------------------------------------|
|-7/9-9-|-7/9-9-9--9/10-10--10-10/12-12--7/9-9-9--9/10-10-10-107-7----|
|-x---x-|-x---x-x--x----x---x--x-----x---x---x-x--x----x--x--x----x---|
|-5/7-7-|-5/7-7-7--7/8--8---8--8-/10-10--5/7-7-7--7/8--8--8--8-5-5----|
|-------|-------------------------------------------------------------|

|-------|-----------------------------------------------------------|
|-------|-----------------------------------------------------------|
|-7/9-9-|-7/9-9-9--9/10-10--10-10/12-12--7/9-9-9--9/10-10-10-10-----|
|-x---x-|-x---x-x--x----x---x--x-----x---x---x-x--x----x--x--x--0-0-|
|-5/7-7-|-5/7-7-7--7/8--8---8--8-/10-10--5/7-7-7--7/8--8--8--8--0-0-|
|-------|-------------------------------------------------------0-0-|

Pre-chorus 1:
|----------------------------------------------------|
|----------------------------------------------------|
|----------------------------------------------------| x2
|-0h2-2-2-2--2-3--3-3-3/5-5--0h2-2-2-2--2-3--3-3-0-0-|
|-0h2-2-2-2--2-3--3-3-3/5-5--0h2-2-2-2--2-3--3-3-0-0-|
|-0h2-2-2-2--2-3--3-3-3/5-5--0h2-2-2-2--2-3--3-3-0-0-|
Pm    . .    .    . .            . .    .    . .

|-----------------------------------------|
|-----------------------------------------|
|--------9-7-9-7-10----------9-7-9-7-12---|
|-0-0--0-x-x-x-x-x----0-0--0-x-x-x-x-x----|
|-0-0--0-7-5-7-5-8----0-0--0-7-5-7-5-10---|
|-0-0--0--------------0-0--0--------------|
Pm. .  .              . .  .

Chorus 1:

	Part 1:

Guitar 1:
|-----------------------------------------|
|-----------------------------------------|
|-----------------------------------------|
|-2--2-2-2-2--2-2-5-5-3--3-3-3-3--3-3-5-5-|
|-2--2-2-2-2--2-2-5-5-3--3-3-3-3--3-3-5-5-|
|-2--2-2-2-2--2-2-5-5-3--3-3-3-3--3-3-5-5-|
Pm            . .                 . .

|---------------------------------------------|
|---------------------------------------------|
|---------------------------------------------|
|-2--2-2-2-2--2-2-5-5-3--3-3-3-3--3-3-5-5-5-5-|
|-2--2-2-2-2--2-2-5-5-3--3-3-3-3--3-3-5-5-5-5-|
|-2--2-2-2-2--2-2-5-5-3--3-3-3-3--3-3-5-5-5-5-|
Pm            . .                 . .

	Part 2:

Guitar 1: same part 1 x2

Guitar 2: w/tremolo picking
|-------------------------------------------|
|-------------------------------------------|
|-9--------------/12--10------------/12-----| x2
|-x---------------x----x--------------x-----|
|-7--------------/10--8-------------/10-----|
|-------------------------------------------|

Interlude:
|----------------------------------------------------|
|----------------------------------------------------|
|----------------------------------------------------|
|-0h2-2-2-2--2-3--3-3-3/5-5--0h2-2-2-2--2-3--3-3-0-0-|
|-0h2-2-2-2--2-3--3-3-3/5-5--0h2-2-2-2--2-3--3-3-0-0-|
|-0h2-2-2-2--2-3--3-3-3/5-5--0h2-2-2-2--2-3--3-3-0-0-|
Pm    . .    .    . .            . .    .    . .

Verse 2: same verse 1

Pre-chorus 2: same pre-chorus 1

Chorus 2: same chorus 1

Solo: w/ wah/wah
|-0-0-0-0-0-0-0-0-/12-12-12-12-12-12-12-12-4-4-4-4-|
|--------------------------------------------------|
|--------------------------------------------------|
|--------------------------------------------------|
|--------------------------------------------------|
|--------------------------------------------------|

|-1-1-1-1-1-1-1-1-/13-13-13-13-13-13-13-13-15-15-15----|
|------------------------------------------------------|
|------------------------------------------------------|
|------------------------------------------------------|
|------------------------------------------------------|
|------------------------------------------------------|

|-0-0-0-0-0-0-0-0-/12-12-12-12-12-12-12-12-|
|------------------------------------------|
|------------------------------------------|
|------------------------------------------|
|------------------------------------------|
|------------------------------------------|

|-12h13p1210-10h12p108-8h10p87-0------|
|-------------------------------------|
|-------------------------------------|
|-------------------------------------|
|-------------------------------------|
|-------------------------------------|

|-12---12--12--12--12--12--12--12------------------------------------------|
|-15b-(15)(15)(15)(15)(15)(15)(15)-12---12--12--12--14-14-14-12---------12-|
|----------------------------------14b-(14)(14)(14)-14-14-14-12---------14b|
|---------------------------------------------------------------14-12-12---|
|--------------------------------------------------------------------------|
|--------------------------------------------------------------------------|

Pre-chorus 3:
|-----------------------------------------|
|-----------------------------------------|
|--------9-7-9-7-10----------9-7-9-7-12---|
|-0-0--0-x-x-x-x-x----0-0--0-x-x-x-x-x----|
|-0-0--0-7-5-7-5-8----0-0--0-7-5-7-5-10---|
|-0-0--0--------------0-0--0--------------|
Pm. .  .              . .  .

Chorus 3: same chorus 1 w/ part 1 x2 & part 2 x1

Tablature Keys:

h - hammer on
p - pull off
b - bend
r - relese bend
~ - sustain
/ - slide up
 - slide down
v - vibrato
* - trill
x - mute string
pm - palm mute
nh - natural harmonic
ph - pitch harmonic
x\ - pick scrape (direction same as slide)





Comments


Popular Drowning Pool tabs & chords
Sinner 2 Bass Tabs
Tear Away Bass Tabs
Bodies 4 Tabs
Feel Like I Do Tabs
Tear Away (Solo) Tabs
Tear Away 1 Tabs
Tearing Away With Tabs
The Game 2 Tabs
37 Stitches Ukulele
Reborn Ukulele


Song lyrics



↑ Back to top | Tablatures and chords are parodies/interpretations of the original songs. You may use it for private study, scholarship, research or language learning purposes only
© 2014 AZChords.com Contact us | Privacy policy | DMCA | Add/correct tabs | Request tabs | Top 50 tabs