» » »

More Than Worthless Tabs (ver.1)

Artists:  A B C D E F G H I J K L M N O P Q R S T U V W X Y Z # 

More Than Worthless Tabs (ver.1)

Drowning Pool
Rating:
5/5 (2 votes)

Hard to play? Try these video lessons and learn fast.
                Band: Drowning Pool

Tuning, Drop B: B, F#, B, E, G#, C#

Intro:
C#|---------8-------7--|---------8-------7--|---------8-----8--5-|
G#|--------------------|--------------------|--------------------|
E |------9-------7-----|------9-------9-----|------9-----9-------|
B |-7------------------|-10-----------------|--------------------|
F#|--------------------|--------------------|-10-----------------|
B |--------------------|--------------------|--------------------|

Verse:
C#|--------------------|--------------------|--------------------|----------------------|
G#|---------1-------0--|---------1-------0--|---------1-----0-33-|---------1-----0-3333-|
E |--------------------|--------------------|--------------------|----------------------|
B |------2-------2-----|------2-------2-----|------2-----2-------|------2-----2---------|
F#|-0------------------|-3------------------|--------------------|----------------------|
B |--------------------|--------------------|-5------------------|-5--------------------|

C#|--------------------|--------------------|--------------------|----------------------|
G#|---------1-------0--|---------1-------0--|---------3-----1----|---------3-----1----0-|
E |--------------------|--------------------|--------------------|----------------------|
B |------2-------2-----|------2-------2-----|------2-----2-------|------2-----2----2----|
F#|-0------------------|-3------------------|--------------------|----------------------|
B |--------------------|--------------------|-5------------------|-5--------------------|

Prechorus:
C#|-----------------|------------------------|-----------------|
G#|-----------------|---------1------0-0-0-00|-----------------|
E |-5-5-5-5-7-7-7-7-|------------------2-2-22|-5-5-5-5-7-7-7-7-|
B |-5-5-5-5-7-7-7-7-|------2------2----------|-5-5-5-5-7-7-7-7-|
F#|-3-3-3-3-5-5-5-5-|-0----------------------|-3-3-3-3-5-5-5-5-|
B |-----------------|------------------------|-----------------|

Chorus:
C#|-----------------|-------------------------|-----------------|-----------------|
G#|-----------------|-------------------------|-----------------|-----------------|
E |-----------------|-------------------------|-----------------|-----------------|
B |-7-7-7-7-7-7-7-7-|-10-10-10-10-10-10-10-10-|-5-5-5-5-5-5-5-5-|-3-3-3-3-3-3-5-5-|
F#|-7-7-7-7-7-7-7-7-|-10-10-10-10-10-10-10-10-|-5-5-5-5-5-5-5-5-|-3-3-3-3-3-3-5-5-|
B |-7-7-7-7-7-7-7-7-|-10-10-10-10-10-10-10-10-|-5-5-5-5-5-5-5-5-|-3-3-3-3-3-3-5-5-|

C#|----------------|----------------------|----------------|-----------------------------|
G#|----------------|----------------------|----------------|-----------------------------|
E |----------------|----------------------|----------------|-----------------------------|
B |-7-7--7-7--7-7--|-10-10--10-10--10-10--|-7-7--7-7--7-7--|-10-10--10-10--10-10-12-12-12|
F#|-7-7--7-7--7-7--|-10-10--10-10--10-10--|-7-7--7-7--7-7--|-10-10--10-10--10-10-12-12-12|
B |-7-7--7-7--7-7--|-10-10--10-10--10-10--|-7-7--7-7--7-7--|-10-10--10-10--10-10-12-12-12|

Bridge:
C#|-----------------|-----------------|-----------------|--------------------|
G#|-----------------|-----------------|-----------------|-1-1-1-11-333-0-0-0-|
E |-----------------|-----------------|-----------------|-2-2-2-22-222-2-2-2-|
B |-3-3-3-3-3-3-3-3-|-2-2-2-2-2-2-2-2-|-3-3-3-3-3-3-3-3-|-2-2-2-22-222-2-2-2-|
F#|-3-3-3-3-3-3-3-3-|-2-2-2-2-2-2-2-2-|-3-3-3-3-3-3-3-3-|-0-0-0-00-000-0-0-0-|
B |-3-3-3-3-3-3-3-3-|-2-2-2-2-2-2-2-2-|-3-3-3-3-3-3-3-3-|--------------------|

C#|-----------------|-----------------|-----------------|
G#|-----------------|-----------------|-----------------|
E |-----------------|-----------------|-----------------|
B |-3-3-3-3-3-3-3-3-|-2-2-2-2-2-2-2-2-|-5~~~~~~~~~~~~~~-|
F#|-3-3-3-3-3-3-3-3-|-2-2-2-2-2-2-2-2-|-5~~~~~~~~~~~~~~-|
B |-3-3-3-3-3-3-3-3-|-2-2-2-2-2-2-2-2-|-5~~~~~~~~~~~~~~-|

That's pretty much it, a few differentiations here and there, but everything you'll need 
right here.
            
Hard to play? Try these video lessons and learn fast. | Correct




comments powered by Disqus
↑ Back to top | Tablatures and chords are parodies/interpretations of the original songs. You may use it for private study, scholarship, research or language learning purposes only