» » »

Drowning Pool, Feel Like I Do Tabs (ver.4)

Artists:  A B C D E F G H I J K L M N O P Q R S T U V W X Y Z # 

Feel Like I Do Tabs (ver.4)

Drowning Pool Tabs
Rating:
0/5 (0 votes)
Hard to play? Try these video lessons and learn fast.
                Feel Like I Do by Drowning Pool
Drop B (B F# B E G# C#)


Intro(Wah, Phaser and Distortion) Chorus (Distortion)
c#|-------------------------------------------|
G#|-------------------------------------------|
E |-------------------------------------------|
B |------------------------------------3------|
F#|-----------3----------------3-5-3-5---5-3-5|
B |--0--0-3-5---5-3b--0--0-3-5----------------|

C#|----------------------------------|
G#|----------------------------------|
E |----------------------------------|
B |----------------------------------|
F#|----------3-----------------------|
B |0--0-3-5---5-3b-0606060605050303--|


Verse (Distortion)
C#|-------------------------------------------|
G#|-------------------------------------------|
E |-------------------------------------------|
B |----------------------------------------35-|
F#|-0-0-0-0-0--0--0----0-0-0-0-0--0--0---35---|
B |-0-0-0-0-0--0--0-3*-0-0-0-0-0--0--0-35-----|
    ......     ....    ......     ....        

C#|------------------------------------|
G#|------------------------------------|
E |------------------------------------|
B |------------------------------------|
F#|0-0-0-0-0--0--0---------------------|
B |0-0-0-0-0--0--0-3b-0606060605050303-|
   .....      ....

C#|-------------------------------------|
G#|-------------------------------------|
E |-------------------------------------|
B |---------------------------------1012|
F#|-----------------------------1012----|
B |-0-12-12-0-12-12-0-12-12-1012--------|

C#|-----------------------------------|
G#|-----------------------------------|
E |-----------------------------------|
B |------------------------1012-------|
F#|--------------------1012----1012---|
B |0-12-12-0-12-12-1012------------10-|

C#|------------------------------------------|
G#|------------------------------------------|
E |------------------------------------------|
B |------------------35----------------------|
F#|-5x5x-5x5x-5x---35--35---10------5--------|
B |5x--5x---5x---35------3--10(x16)-5(x8)-3b-|


Pre-Chorus (Distortion)
C#|------------------------------------------|
G#|------------------------------------------|
E |------------------------------------------|
B |---------------------------------------35-|
F#|-10------5------8--3--5x5x-5x5x-5x---35---|
B |-10(x16)-5(x8)--8--3-5x--5x---5x---35-----|


Bridge (Wah and Distortion)  
C#|--------------------------|
G#|--------------------------|
E |--------------------------|
B |--------------------------|
F#|--------------------------|
B |0222---0222---0222---0222-|

C#|-10-10-10-8-8-8-7-7-7-8-8-8-7h8p7-5-|
G#|------------------------------------|
E |------------------------------------|
B |------------------------------------|
F#|------------------------------------|
B |------------------------------------|
            

comments powered by Disqus
↑ Back to top | Drowning Pool Tabs for Feel Like I Do. Lyrics for acoustic guitar and electric guitar. Tablatures and chords are parodies/interpretations of the original songs. You may use it for private study, scholarship, research or language learning purposes only