» » »

Drowning Pool, Feel Like I Do Tabs (ver.3)

Artists:  A B C D E F G H I J K L M N O P Q R S T U V W X Y Z # 

Feel Like I Do Tabs (ver.3)

Drowning Pool Tabs
 Rating:
4/5 (4 votes)
Feel Like I Do lessons Tabs too difficult? Try these video lessons and learn fast
                Band: Drowning Pool

Tuning, Drop B: B, F#, B, E, G#, C#

For the intro, i've seen tabs say C.J. Pierce uses a flange effect, however, I got a 
close effect using
a completely open wah pedal and an overdrive pedal. Specifically I used a Dunlop Crybaby 
a
Coffin Case Blood Drive.

Intro:
C#|------------------|-----------------------------|
G#|------------------|-----------------------------|
E |------------------|-----------------------------|
B |------------------|--------------------3--------|
F#|-----------3------|-----------3--5p3h5---5p3h5--|
B |-0--0-3h5----5-3--|-0--0-3h5--------------------|

C#|------------------|--------------------------------|
G#|------------------|--------------------------------|
E |------------------|--------------------------------|
B |------------------|--------------------------------|
F#|-----------3------|-5---5---5---5---------------3--|
B |-0--0-3h5----5-3--|-0-6-0-6-0-6-0-6-0-5-0-5-0-5-3--|

Verse:
C#|---------------------|-------------------------|
G#|---------------------|-------------------------|
E |---------------------|-------------------------|
B |---------------------|----------------------3h5|
F#|-------0---0---------|-------------------3h5---|
B |-0-0-0-0-x-0-----0-3b|-0-0-0-0-x-0----3h5------|

C#|---------------------|--------------------------------|
G#|---------------------|--------------------------------|
E |---------------------|--------------------------------|
B |---------------------|--------------------------------|
F#|-----------0---------|-5---5---5---5------------------|
B |-0-0-0-0-x-0-----0-3b|-0-6-0-6-0-6-0-6-0-5-0-5-0-5-0-5|

C#|-----------------------------------------------|
G#|-----------------------------------------------|
E |-----------------------------------------------|
B |------------------------------------------10h12|
F#|-------------10----------------------10h12-----|
B |-12-12-12-12----12-12-12-12-12-10-12-----------|

C#|----------------------------------------------|
G#|----------------------------------------------|
E |----------------------------------------------|
B |------------------------------10h12------10---|
F#|-------------10----------10h12-----10h12------|
B |-12-12-12-12----12-10-12----------------------|

C#|-----------------------------------------------|
G#|-----------------------------------------------|
E |-----------------------------------------------|
B |------------------------------------------10h12|
F#|-------------10----------------------10h12-----|
B |-12-12-12-12----12-12-12-12-12-10-12-----------|

C#|--------------------------------|
G#|--------------------------------|
E |--------------------------------|
B |--------------------------------|
F#|-5---5---5---5---------------3--|
B |-0-6-0-6-0-6-0-6-0-5-0-5-0-5-3--|

Pre-Chorus:
C#|-----------------------|------------------------|
G#|-----------------------|------------------------|
E |-----------------------|------------------------|
B |-----------------------|------------------------|
F#|10-10-10-10-10-10-10-10|-5-5-5-5-8-8-8-8-3-3-3--|
B |10-10-10-10-10-10-10-10|-5-5-5-5-8-8-8-8-3-3-3--|

C#|------------------------------|---------------------------|
G#|------------------------------|---------------------------|
E |------------------------------|---------------------------|
B |---------------------------3h5|-------------------3h5---3-|
F#|-3------3-------3-------3h5---|-3------3-------3h5---3h5--|
B |-3-5*5*-3-5*-5*-3-5*-5*-------|-3-5*5*-3-5*-5*------------|
 (* = harmonic)

C#|-----------------------|-------------------|
G#|-----------------------|-------------------|
E |-----------------------|-------------------|
B |-----------------------|-------------------|
F#|10-10-10-10-10-10-10-10|-5-5-5-5-3~~~~-----|
B |10-10-10-10-10-10-10-10|-5-5-5-5-3~~~~-----|

Chorus is same as intro.

Interlude: (Lots of wah)
C#|---------------------|
G#|---------------------|
E |---------------------|
B |---------------------|
F#|---------------0-1-0-|
B |-0-0-0-0-0-0-0-0-1-0-|
                  pm---

Solo:
C#|----------------------------------------------|
G#|----------------------------------------------|
E |14-14-14-12-12-12------------------------12h14|
B |------------------14-14-14-12-12-12-10h12-----|
F#|----------------------------------------------|
B |----------------------------------------------|

C#|----------------------------------------------------|
G#|--------------------------------------13h15-----13--|
E |14-14-14-12-12-12----------------12h14-----12h14----|
B |------------------14-14-14-12-12--------------------|
F#|----------------------------------------------------|
B |----------------------------------------------------|

Bridge:
C#|-------------------------------|
G#|-------------------------------|
E |-------------------------------|
B |-------------------------------|
F#|-0---0-0---0-0---6------0-3-3--|
B |-0---0-0---0-0---6------0-3-3--|

he plays it pretty similar to my way.
            
Submit corrections

comments powered by Disqus
↑ Back to top | Drowning Pool Tabs for Feel Like I Do. Lyrics for acoustic guitar and electric guitar. Tablatures and chords are parodies/interpretations of the original songs. You may use it for private study, scholarship, research or language learning purposes only