>
 >
Feel Like I Do

Feel Like I Do Guitar Tabs

Drowning Pool - Feel Like I Do chords, tabs, tablatures, lyrics

Guitar lessons | Add/correct | Request | Top 50 tabs Artists:  A B C D E F G H I J K L M N O P Q R S T U V W X Y Z 0-9

Feel Like I Do Guitar Tabs – Drowning Pool

CD, Sheet music, Poster

Do you like Feel Like I Do? Share with your friends now
TabsTabs v2Tabs v3
Feel Like I Do  Drowning Pool
-------------------------------------------------------------------------------

Tuning: Drop B

e|---------------------------------------------------------------------------|
B|---------------------------------------------------------------------------|
G|---------------------------------------------------------------------------|
D|---------------------------------------------3-----------------------------|
A|-------------3-------------------3----5-3-5-----5-3-5----------------------|
E|---0--0-3-5------5--3----0-0-3-5-------------------------------------------|

e|-----------------------------------------------------------------------------|
B|-----------------------------------------------------------------------------|
G|-----------------------------------------------------------------------------|
D|-----------------------------------------------------------------------------|
A|----------3------------------------------------3-----------------------------|
E|-0-0-3-5----5-3-0p6p0p6p0p6p0p60p5p0p5p0p5p0--3-----------------------------|

e|---------------------------------------------------------------------------|
B|---------------------------------------------------------------------------|
G|---------------------------------------------------------------------------|
D|------------------------------------------------3-5------------------------|
A|--0-3-0-0--3-0--0-3-------0-3-0-0--0-0------3-5----------------------------|
E|--0-3-0-0--3-0--0-3-------0-3-0-0--0-0--3-5--------------------------------|
x x x x  x x  x         x x x x  x x

e|-----------------------------------------------------------------------------|
B|-----------------------------------------------------------------------------|
G|-----------------------------------------------------------------------------|
D|-----------------------------------------------------------------------------|
A|--0-3-0-0--3-0--0-3----------------------------------------------------------|
E|--0-3-0-0--3-0--0-3---0p6p0p6p0p6p0p60p5p0p5p-------------------------------|
x x x x  x x  x

e|---------------------------------------------------------------------------|
B|---------------------------------------------------------------------------|
G|---------------------------------------------------------------------------|
D|-------------------------------------------------10--12--------------------|
A|-----------------------------------------10---12---------------------------|
E|----12-12-12-12-12-12-12-12------10--12------------------------------------|

e|---------------------------------------------------------------------------|
B|---------------------------------------------------------------------------|
G|---------------------------------------------------------------------------|
D|--------------------------------------------10-12----------10-12-----------|
A|--------------------------------------10-12---------10--12-----------------|
E|--12-12-12-12-12-12-12-12-12-12-10-12--------------------------------------|

e|---------------------------------------------------------------------------|
B|---------------------------------------------------------------------------|
G|---------------------------------------------------------------------------|
D|-------------------------------------------------10--12--------------------|
A|-----------------------------------------10---12---------------------------|
E|----12-12-12-12-12-12-12-12------10--12------------------------------------|

e|---------------------------------------------------------------------------|
B|---------------------------------------------------------------------------|
G|---------------------------------------------------------------------------|
D|--------------------------------------------10-12----------10-12-----------|
A|--------------------------------------10-12---------10--12-----------------|
E|--12-12-12-12-12-12-12-12-12-12-10-12--------------------------------------|

e|---------------------------------------------------------------------------|
B|---------------------------------------------------------------------------|
G|---------------------------------------------------------------------------|
D|----------------------------------------------------------------------35--|
A|--10-10-10----5-5-5--8-8-8--3--3--x-x-x--5-x-x-x-5-x-x-x--------3-5--------|
E|--10-10-10----5-5-5--8-8-8--3--3--x-x-x--5-x-x-x-5-x-x-x--3-5--------------|

e|---------------------------------------------------------------------------|
B|---------------------------------------------------------------------------|
G|---------------------------------------------------------------------------|
D|-------------------------------------------------3-5-----3-5---------------|
A|--------------x-x-x--5-x-x-x-5-x-x-x--------3-5------3-5-------------------|
E|--------------x-x-x--5-x-x-x-5-x-x-x--3-5----------------------------------|

e|---------------------------------------------------------------------------|
B|---------------------------------------------------------------------------|
G|---------------------------------------------------------------------------|
D|---------------------------------------------------------------------------|
A|--10-10-10----5-5-5---3-3---0----------------------------------------------|
E|--10-10-10----5-5-5---3-3---0----------------------------------------------|


e|---------------------------------------------------------------------------|
B|---------------------------------------------------------------------------|
G|---------------------------------------------------------------------------|
D|---------------------------------------------3-----------------------------|
A|-------------3-------------------3----5-3-5-----5-3-5----------------------|
E|---0--0-3-5------5--3----0-0-3-5-------------------------------------------|

e|-----------------------------------------------------------------------------|
B|-----------------------------------------------------------------------------|
G|-----------------------------------------------------------------------------|
D|-----------------------------------------------------------------------------|
A|----------3------------------------------------3-----------------------------|
E|-0-0-3-5----5-3-0p6p0p6p0p6p0p60p5p0p5p0p5p0--3-----------------------------|


Verse and chorus stay the same.

BRIDGE:

e|---------------------------------------------------------------------------|
B|---------------------------------------------------------------------------|
G|---------------------------------------------------------------------------|
D|---------------------------------------------------------------------------|
A|---------------------------------------------------------------------------|
E|--0--2-2-0-2-2-0-1-1--0--1--0----------------------------------------------|     x  x  x

                          PLAY THIS 3 TIMES BEFORE

e|---------------------------------------------------------------------------|
B|---------------------------------------------------------------------------|
G|---------------------------------------------------------------------------|
D|---------------------------------------------------------------------------|
A|---------------------------------------------------------------------------|
E|--0--2-2-2-0-2-2-2-0-2-2-2-0-2-2-2-----------------------------------------|


                               Solo


e|---------------------------------------------------------------------------|
B|-15-15--13--13--12--1010h10-----------------------------------------------|
G|------------------------------12b14----------------------------------------|
D|---------------------------------------------------------------------------|
A|---------------------------------------------------------------------------|
E|---------------------------------------------------------------------------|


You can figure out the strum pattern to the chorus. Use your ear.

************************************

| /   slide up
| \   slide down
| h   hammer-on
| p   pull-off
| ~   vibrato
| +   harmonic
| x   Mute note
| b   Bend
| pb  Pre-bend
| br  Bend release
| pbr Pre-bend release
| brb Bend release bend

************************************





Comments


Popular Drowning Pool tabs & chords
Sinner Bass Tabs
Sinner 2 Bass Tabs
Sinner Ver Bass Tabs
Tear Away Bass Tabs
Bodies 1 Tabs
Follow 1 Tabs
Nothingness (Intro) Tabs
Turn So Cold Tabs
Turn So Cold Intro Tabs
37 Stitches Ukulele


Song lyrics



↑ Back to top | Tablatures and chords are parodies/interpretations of the original songs. You may use it for private study, scholarship, research or language learning purposes only
© 2014 AZChords.com Contact us | Privacy policy | DMCA | Add/correct tabs | Request tabs | Top 50 tabs