» » »

Drowning Pool, Feel Like I Do Tabs (ver.1)

Artists:  A B C D E F G H I J K L M N O P Q R S T U V W X Y Z # 

Feel Like I Do Tabs (ver.1)

Drowning Pool Tabs
Rating:
4/5 (3 votes)
Feel Like I Do lessons Tabs too difficult? Try these video lessons and learn fast
                Feel Like I Do – Drowning Pool
-------------------------------------------------------------------------------

Tuning: Drop B

e|---------------------------------------------------------------------------|
B|---------------------------------------------------------------------------|
G|---------------------------------------------------------------------------|
D|---------------------------------------------3-----------------------------|
A|-------------3-------------------3----5-3-5-----5-3-5----------------------|
E|---0--0-3-5------5--3----0-0-3-5-------------------------------------------|

e|-----------------------------------------------------------------------------|
B|-----------------------------------------------------------------------------|
G|-----------------------------------------------------------------------------|
D|-----------------------------------------------------------------------------|
A|----------3------------------------------------3-----------------------------|
E|-0-0-3-5----5-3-0p6p0p6p0p6p0p6—0p5p0p5p0p5p0--3-----------------------------|

e|---------------------------------------------------------------------------|
B|---------------------------------------------------------------------------|
G|---------------------------------------------------------------------------|
D|------------------------------------------------3-5------------------------|
A|--0-3-0-0--3-0--0-3-------0-3-0-0--0-0------3-5----------------------------|
E|--0-3-0-0--3-0--0-3-------0-3-0-0--0-0--3-5--------------------------------|
x x x x  x x  x         x x x x  x x

e|-----------------------------------------------------------------------------|
B|-----------------------------------------------------------------------------|
G|-----------------------------------------------------------------------------|
D|-----------------------------------------------------------------------------|
A|--0-3-0-0--3-0--0-3----------------------------------------------------------|
E|--0-3-0-0--3-0--0-3---0p6p0p6p0p6p0p6—0p5p0p5p-------------------------------|
x x x x  x x  x

e|---------------------------------------------------------------------------|
B|---------------------------------------------------------------------------|
G|---------------------------------------------------------------------------|
D|-------------------------------------------------10--12--------------------|
A|-----------------------------------------10---12---------------------------|
E|----12-12-12-12-12-12-12-12------10--12------------------------------------|

e|---------------------------------------------------------------------------|
B|---------------------------------------------------------------------------|
G|---------------------------------------------------------------------------|
D|--------------------------------------------10-12----------10-12-----------|
A|--------------------------------------10-12---------10--12-----------------|
E|--12-12-12-12-12-12-12-12-12-12-10-12--------------------------------------|

e|---------------------------------------------------------------------------|
B|---------------------------------------------------------------------------|
G|---------------------------------------------------------------------------|
D|-------------------------------------------------10--12--------------------|
A|-----------------------------------------10---12---------------------------|
E|----12-12-12-12-12-12-12-12------10--12------------------------------------|

e|---------------------------------------------------------------------------|
B|---------------------------------------------------------------------------|
G|---------------------------------------------------------------------------|
D|--------------------------------------------10-12----------10-12-----------|
A|--------------------------------------10-12---------10--12-----------------|
E|--12-12-12-12-12-12-12-12-12-12-10-12--------------------------------------|

e|---------------------------------------------------------------------------|
B|---------------------------------------------------------------------------|
G|---------------------------------------------------------------------------|
D|----------------------------------------------------------------------3—5--|
A|--10-10-10----5-5-5--8-8-8--3--3--x-x-x--5-x-x-x-5-x-x-x--------3-5--------|
E|--10-10-10----5-5-5--8-8-8--3--3--x-x-x--5-x-x-x-5-x-x-x--3-5--------------|

e|---------------------------------------------------------------------------|
B|---------------------------------------------------------------------------|
G|---------------------------------------------------------------------------|
D|-------------------------------------------------3-5-----3-5---------------|
A|--------------x-x-x--5-x-x-x-5-x-x-x--------3-5------3-5-------------------|
E|--------------x-x-x--5-x-x-x-5-x-x-x--3-5----------------------------------|

e|---------------------------------------------------------------------------|
B|---------------------------------------------------------------------------|
G|---------------------------------------------------------------------------|
D|---------------------------------------------------------------------------|
A|--10-10-10----5-5-5---3-3---0----------------------------------------------|
E|--10-10-10----5-5-5---3-3---0----------------------------------------------|


e|---------------------------------------------------------------------------|
B|---------------------------------------------------------------------------|
G|---------------------------------------------------------------------------|
D|---------------------------------------------3-----------------------------|
A|-------------3-------------------3----5-3-5-----5-3-5----------------------|
E|---0--0-3-5------5--3----0-0-3-5-------------------------------------------|

e|-----------------------------------------------------------------------------|
B|-----------------------------------------------------------------------------|
G|-----------------------------------------------------------------------------|
D|-----------------------------------------------------------------------------|
A|----------3------------------------------------3-----------------------------|
E|-0-0-3-5----5-3-0p6p0p6p0p6p0p6—0p5p0p5p0p5p0--3-----------------------------|


Verse and chorus stay the same.

BRIDGE:

e|---------------------------------------------------------------------------|
B|---------------------------------------------------------------------------|
G|---------------------------------------------------------------------------|
D|---------------------------------------------------------------------------|
A|---------------------------------------------------------------------------|
E|--0--2-2-0-2-2-0-1-1--0--1--0----------------------------------------------|     x  x  x

                          PLAY THIS 3 TIMES BEFORE

e|---------------------------------------------------------------------------|
B|---------------------------------------------------------------------------|
G|---------------------------------------------------------------------------|
D|---------------------------------------------------------------------------|
A|---------------------------------------------------------------------------|
E|--0--2-2-2-0-2-2-2-0-2-2-2-0-2-2-2-----------------------------------------|


                               Solo


e|---------------------------------------------------------------------------|
B|-15-15--13--13--12--10—10h10-----------------------------------------------|
G|------------------------------12b14----------------------------------------|
D|---------------------------------------------------------------------------|
A|---------------------------------------------------------------------------|
E|---------------------------------------------------------------------------|


You can figure out the strum pattern to the chorus. Use your ear.

************************************

| /   slide up
| \   slide down
| h   hammer-on
| p   pull-off
| ~   vibrato
| +   harmonic
| x   Mute note
| b   Bend
| pb  Pre-bend
| br  Bend release
| pbr Pre-bend release
| brb Bend release bend

************************************
            

comments powered by Disqus
↑ Back to top | Drowning Pool Tabs for Feel Like I Do. Lyrics for acoustic guitar and electric guitar. Tablatures and chords are parodies/interpretations of the original songs. You may use it for private study, scholarship, research or language learning purposes only