>
 >
Enemy

Enemy Guitar Tabs

Drowning Pool - Enemy chords, tabs, tablatures, lyrics

Guitar lessons | Add/correct | Request | Top 50 tabs Artists:  A B C D E F G H I J K L M N O P Q R S T U V W X Y Z 0-9

Enemy Guitar Tabs – Drowning Pool

CD, Sheet music, Poster

Do you like Enemy? Share with your friends now
Tabs
*****Best song on Full Circle
(Drop C)


Intro
Guitar 1 (2x)
D|---------------------------|--------------------------------
A|---------------------------|--------------------------------
F|---------------------------|--------------------------------
C|------777-555-888-777-555--|---------888-777-101010-888-777-
G|--555----------------------|--------------------------------
C|---------------------------|--101010------------------------

|------------------------------|---------------|
|------------------------------|---------------|
|------------------------------|---------------|
|------101010-888-777-888-777--|--8-8-8---3-3--| 
|------------------------------|--8-8-8---3-3--|
|--777-------------------------|--8-8-8---3-3--|


Guitar 2 (2x)
|--------|------------|--------|---------------|
|--------|------------|--------|---------------|
|--------|------------|--------|---------------|
|--0000--|--10101010--|--7777--|--8-8-8---3-3--|
|--0000--|--10101010--|--7777--|--8-8-8---3-3--|
|--0000--|--10101010--|--7777--|--8-8-8---3-3--| 
____________________________________________________________________________

Verse (Both Guitars)

|----------------------------|
|----------------------------|
|----------------------------|
|----------------------------|
|----------------------------|
|--0000-5-000-7-000-8-0-5-0--|
 PM.........................
 play 8x.
 gradually lift palm mute on 4th & 8th times
 played with some sort of wah effect
____________________________________________________________________________

Pre-Chorus (Both Guitars...I think)

|-----------------------------------------------------------------
|-----------------------------------------------------------------
|----888-777-------------888-777---------------101010-888---------
|--00--------00-00--1010---------1010-1010--77-------------77-77--
|--00--------00-00--1010---------1010-1010--77-------------77-77--
|--00--------00-00--1010---------1010-1010--77-------------77-77--
   .         .  .    .            .         .              .  .
   
|-------------|
|-------------|
|-------------|
|--8-8-8--33--| (1x)
|--8-8-8--33--|
|--8-8-8--33--|

then...
 Guitar 1
D|-----------------------------------------------------------
A|-----------------------------------------------------------
F|-----------------------------------------------------------
C|------777-555-888-777-555-----------888-777-101010-888-777-
G|--555------------------------------------------------------
C|-----------------------------101010------------------------

|------------------------------|-----------------------|
|------------------------------|-----------------------|
|------------------------------|-----------------------|
|------101010-888-777-888-777--|--8888--10101010--12\--|
|------------------------------|--8888--10101010--12\--|
|--777-------------------------|--8888--10101010--12\--|
____________________________________________________________________________

Chorus (Both Guitars) (2x)

|-------------------------|--------------------------------|
|-------------------------|--------------------------------|
|-------------------------|--------------------------------|
|--00-00-00-000--10~~~~~--|--77-77-77-777--8888--10101010--|
|--00-00-00-000--10~~~~~--|--77-77-77-777--8888--10101010--|
|--00-00-00-000--10~~~~~--|--77-77-77-777--8888--10101010--|
____________________________________________________________________________

Sweet ass fill

Guitar 1
|---------------------------------------------------------|------|
|----------------------10-12-10-12-10-12-10-12--10~~~~~\--|------|
|--5bbbbbbbbbb/7~~~~~--10-12-10-12-10-12-10-12--10~~~~~\--|------|
|---------------------------------------------------------|--10--|
|---------------------------------------------------------|--10--|
|---------------------------------------------------------|--10--|

Rhythm = verse
____________________________________________________________________________

2nd Prechorus Fill

Guitar 1 (w/ wah)
|----------------------------|
|--/15-15-15-15-15-15-15~~\--|
|----------------------------|
|----------------------------|
|----------------------------|
|----------------------------|
____________________________________________________________________________

Bridge (Both Guitars)

|----------------------------|
|----------------------------|
|----------------------------| 
|--00--/7-5-3-2--00--/7-5-3--|
|--00--/7-5-3-2--00--/7-5-3--|
|--00--/7-5-3-2--00--/7-5-3--|

|----------------------------|
|----------------------------|
|----------------------------| play these riffs a couple of times.
|--00--/7-5-3-2--00--/7-5~~--| Get progressively heavier each time.
|--00--/7-5-3-2--00--/7-5~~--|
|--00--/7-5-3-2--00--/7-5~~--|

Last time

|--------------------------------|
|--------------------------------|
|--------------------------------| 
|--00--/7-5-3-2--8888--10101010--|
|--00--/7-5-3-2--8888--10101010--|
|--00--/7-5-3-2--8888--10101010--|
____________________________________________________________________________

Outro

 Guitar 1
D|---------------------------|--------------------------------
A|---------------------------|--------------------------------
F|---------------------------|--------------------------------
C|------777-555-888-777-555--|---------888-777-101010-888-777-
G|--555----------------------|--------------------------------
C|---------------------------|--101010------------------------

|------------------------------|---------------|
|------------------------------|---------------|
|------------------------------|---------------|
|------101010-888-777-888-777--|--8-8-8---3-3--| 
|------------------------------|--8-8-8---3-3--|
|--777-------------------------|--8-8-8---3-3--|
 
|---------|
|---------|
|---------|
|--00000--|
|--00000--|
|--00000--|

Guitar 2
|-------------|--------------------|------------|---------------|
|-------------|--------------------|------------|---------------|
|-------------|--------------------|------------|---------------|
|--00--00-00--|--1010--1010--1010--|--77--77-77-|--8-8-8---3-3--|
|--00--00-00--|--1010--1010--1010--|--77--77-77-|--8-8-8---3-3--|
|--00--00-00--|--1010--1010--1010--|--77--77-77-|--8-8-8---3-3--| 
       .  .             .     .           .  .

|---------|
|---------|
|---------|
|--00000--|
|--00000--|
|--00000--|
____________________________________________________________________________

That's it. Please give a good rating.

-Z





Comments


Popular Drowning Pool tabs & chords
Bodies Bass Tabs
Tearing Away Bass Tabs
I Am Tabs
Numb Tabs
Pity Tabs
Pity Intro Tabs
Step Up Tabs
Tear Away (Solo) Tabs
This Life Tabs
Turn So Cold Tabs


Song lyrics



↑ Back to top | Tablatures and chords are parodies/interpretations of the original songs. You may use it for private study, scholarship, research or language learning purposes only
© 2014 AZChords.com Contact us | Privacy policy | DMCA | Add/correct tabs | Request tabs | Top 50 tabs