» » »

Bodies Bass tabs (ver.2)

Artists:  A B C D E F G H I J K L M N O P Q R S T U V W X Y Z # 

Bodies Bass tabs (ver.2)

Drowning Pool
Rating:
4/5 (2 votes)

Hard to play? Try these video lessons and learn fast.
                Tunning- start in Drop D tunning and tune down one whole step
low to high- C,G,C,F

Intro
F-------------------------------------------------
C-------------------------------------------------
G-------------------------------------------------
C-0--0-0-0-0-6~-6-6-6-6/---0--0-0-0--6~-6-6--3-0--

F---------------------------------------------
C---------------------------------------------
G-----------5~~-------5--5-6~-6-8~-10-10-10/--
C-0~~-----------------------------------------

(0:22, 1:14)
F------------------
C------------------   X3
G------------------
C-0--0-1-0~-0-1-3--

Verses  (0:30, 1:21)
F------------------
C------------------   X3
G------------------
C-0--0-1-0~-0-1-3--

F------------------------------------------------
C------------------------------------------------
G------------------------------------------------
C-0--0-1--~--0--1--3---0--0-0-3--3-3--5--5\7-7/--

1st and 2nd Pre-Chorus  (0:44, 1:36)
F-----------3---------
C---------------------   X3
G-5--3~--5------5--3--
C---------------------

F-----------3------------------------------------
C------------------------------------------------
G-5--3~--5------5--3--5--5--6--6\8--8--10-10-10--
C------------------------------------------------

Chorus  (0:59, 1:50, 2:56)
F-------------------------------------------
C-------------------------------------------
G-------------------------------------------
C-0--0--0--6~--6-6/---0--0--0--6~--6--3--0--

F-------------------------------------------------
C-------------------------------------------------
G-------------------------------------------------
C-0--0--0--6~--6--6--6---0--0--0--6~--6--3-3-0-0--

Bridge  (2:05)
F----------------------------------------
C----------------------------------------
G----------------------------------------
C-3-6-3-3-0-0--0---0--0-0-0-0-0-0-0-0-0--

F---------------------------------------------
C---------------------------------------------
G---------------------------------------------
C-3-3-6-3-3--0--0---3---3--3-3-3-1-1-1-1-1-1--

F----------------------------------------
C----------------------------------------
G----------------------------------------
C-3-6-3-3-0-0--0---0--0-0-0-0-0-0-0-0-0--

F----------------------------------------------------
C----------------------------------------------------
G----------------------------------------------------
C-3--3--6--3--3---0--0----3~~--3--3-3--3-1--1--1--1--

(2:20)
F---------------------------------------------
C---------------------------------------------
G-----------5~~-------5--5-6~-6-8~-10-10-10/--
C-0~~-----------------------------------------

F------------------
C------------------   X3
G------------------
C-0--0-1-0~-0-1-3--

F------------------------------------------------
C------------------------------------------------
G------------------------------------------------
C-0--0-1--~--0--1--3---0--0-0-3--3-3--5--5\7-7/--

3rd Pre-Chorus  (2:42)
F-----------3---------
C---------------------   X4
G-5--3~--5------5--3--
C---------------------

Outro  (3:11)
F------------------------------------------------
C------------------------------------------------
G------------------------------------------------
C-0--0---0--6~--6--6--6---0--0--0---6~--6--3--0--

F-----------------------------------------------
C-----------------------------------------------
G-----------------------------------------------
C-0--0---0--6~--6--6--6---0--0---0---6~---6--3--
            
Hard to play? Try these video lessons and learn fast. | Correct




comments powered by Disqus
↑ Back to top | Tablatures and chords are parodies/interpretations of the original songs. You may use it for private study, scholarship, research or language learning purposes only