» » »

Drowning Pool, Bodies Tabs (ver.2)

Artists:  A B C D E F G H I J K L M N O P Q R S T U V W X Y Z # 

Bodies Tabs (ver.2)

Drowning Pool Tabs
 Rating:
4.7/5 (15 votes)
Bodies lessons Tabs too difficult? Try these video lessons and learn fast
1
                TUNING: Down One Step + Drop D


INTRO:
-----------------------------------------|
-----------------------------------------|
---7-7-7----------------7----------------|
---7-7-7--6-6-6-6---0---7--6--6-6-6------| (x2)
---5-5-5--6-6-6-6---0---5--6--6-6-6------|
----------6-6-6-6---0------6--6-6-6------|

-------------------------------------|
-------------------------------------|
-------------------------------------|
-7-7-7--7/15/7---7-7-8--8/20/8-------| (x4)
-5-5-5--5/13/5---5-5-5--5/17/5-------|
-------------------------------------|

VERSE 1:

-------------------|
-------------------|
-------------------|
-------------------| (x8)
-------------------|
-0--0-0-0--0--1--3-|


------------------------------------------------------------------------|
------------------------------------------------------------------------|
----------7(let ring and slide)/0------------12------------/0-----------|
-0--0-0---7--------------------/0----0--0-0--12--(the same)/0-----------|(x4)
-0--0-0---5--------------------/0----0--0-0--10------------/0-----------|
-0--0-0------------------------------0--0-0-----------------------------|


CHORUS:

-------------------------------------------------|
-------------------------------------------------|
-7--7-7----------------------7-------------------|
-7--7-7--6--6-6--6--6---0--0-7--6--6-6--6--6-----| (x4)
-5--5-5--6--6-6--6--6---0--0-5--6--6-6--6--6-----|
---------6--6-6--6--6---0--0----6--6-6--6--6-----|

AFTER CHORUS:


-------------------------------------|
-------------------------------------|
-------------------------------------|
-7-7-7--7/15/7---7-7-8--8/20/8-------| (x2)
-5-5-5--5/13/5---5-5-5--5/17/5-------|
-------------------------------------|

VERSE 2: (Same as VERSE 1)

[repeat CHORUS]

INTERLUDE:


-----------------------------------|
-----------------------------------|
------------------7----------------|
-0-0--0-0--0-5/6--7---6--5---------|(Play Fast and Strum Heavily)
-0-0--0-0--0-5/6--5---6--5---------|(must not have a clear sound)
-0-0--0-0--0-5/6------6--5---------|

[repeat AFTER CHORUS]

and then (2:35):

-------------------------------------------------|
-------------------------------------------------|
-------------------------------------------------|
--7--7/15/7/15--15/7/15/7-8/20/8/20--20/8/20/8---| (x2)
--5--5/13/5/13--13/5/13/5-5/17/5/17--17/5/17/5---|
-------------------------------------------------|

PRE CHORUS:

------------------------------------------------|
------------------------------------------------|
------------------------------------------------|
-0--0-0-----0--0-0----0--0-0----0--0-0----------|
-0--0-0-----0--0-0----0--0-0----0--0-0----------|
-0--0-0-----0--0-0----0--0-0----0--0-0----------|

This is when he says:
  One, Nothing's Wrong With me
  Two, Nothing's wrong with me...and so on


and then it changes slightly:

----------------------|
----------------------|
----------------------|
--0--0-0-x-x-x-x------|
--0--0-0-x-x-x-x------| (and you go on with this different Strumming)
--0--0-0-x-x-x-x------|

[repeat CHORUS]
            
Submit corrections

comments powered by Disqus
↑ Back to top | Drowning Pool Tabs for Bodies. Lyrics for acoustic guitar and electric guitar. 1 Tablatures and chords are parodies/interpretations of the original songs. You may use it for private study, scholarship, research or language learning purposes only