» » »

All Over Me Tabs (ver.2)

Artists:  A B C D E F G H I J K L M N O P Q R S T U V W X Y Z # 

All Over Me Tabs (ver.2)

Drowning Pool
Rating:
4/5 (6 votes)

Hard to play? Try these video lessons and learn fast.
                Band- Drowning Pool
Song- All Over Me

Tuning: B f# b e g# c#
i know that C.J. usually use drop c tuning, but for this song i think this is
the right tuning


Intro 1: w/effect
|--------------------|
|--------------------|
|-7---8---7---8-/-12-| x1
|-x---x---x---x---x--|
|-5---6---5---6-/-10-|
|--------------------|

Intro 2: x2

Guitar 1: same intro 1

Guitar 2: w/effect
|--------------------|
|--------------------|
|-7---8---7---5------|
|-x---x---x---x------|
|-5---6---5---3------|
|--------------------|

Verse 1:
|--------------------------------------------------------------------------|
|--------------------------------------------------------------------------|
|--------------------------------------------------------------------------| x2
|-0--0-0------------1--1-1---1--1-1---0--0-0------------5---5-5-5--5-5-5---|
|-0--0-0------------1--1-1---1--1-1---0--0-0------------5---5-5-5--5-5-5---|
|-0--0-0------------1--1-1---1--1-1---0--0-0------------5---5-5-5--5-5-5---|
Pm.  .              .  .     .  . .   .  .                  . .    . .

Pre-chorus 1:

	Part 1:

Guitar 1:
|---------------------------------------------------------|
|---------------------------------------------------------|
|---------------------------------------------------------|
|-0---0-0-0-0---1---1-1-1-1---0---0-0-0-0---5---5-5-5-5---|
|-0---0-0-0-0---1---1-1-1-1---0---0-0-0-0---5---5-5-5-5---|
|-0---0-0-0-0---1---1-1-1-1---0---0-0-0-0---5---5-5-5-5---|

	Part 2:

Guitar 1:
|-----------------------------------------------|
|-----------------------------------------------|
|-----------------------------------------------|
|-0---0-0-0-0---1---1-1-1-1---0---0-0-0-0---5---|
|-0---0-0-0-0---1---1-1-1-1---0---0-0-0-0---5---|
|-0---0-0-0-0---1---1-1-1-1---0---0-0-0-0---5---|

Guitar 2: w/effect and tremolo picking
|-----------------------------------------------|
|-----------------------------------------------|
|-----------------------------------------------|
|-5-----------8-6-----------8-5-----------------|
|-----------------------------------------------|
|-----------------------------------------------|

Chorus 1: w/ wah/wah and tremolo picking
|------------------------|
|------------------------|
|-7---8---5---7---8---12-|
|-x---x---x---x---x---x--|
|-5---6---3---5---6---10-|
|------------------------|

Verse 2: same verse 1

Pre-chorus 2:

Guitar 1:
|---------------------------------------------------------|
|---------------------------------------------------------|
|---------------------------------------------------------| x2
|-0---0-0-0-0---1---1-1-1-1---0---0-0-0-0---5---5-5-5-5---|
|-0---0-0-0-0---1---1-1-1-1---0---0-0-0-0---5---5-5-5-5---|
|-0---0-0-0-0---1---1-1-1-1---0---0-0-0-0---5---5-5-5-5---|

Guitar 2: w/effect and tremolo picking - starts on 2nd of guitar 1
|-----------------------------------------------|
|-----------------------------------------------|
|-----------------------------------------------| x1
|-5-----------8-6-----------8-5-----------3-----|
|-----------------------------------------------|
|-----------------------------------------------|

Chorus 2: w/ wah/wah and tremolo picking
|------------------------|
|------------------------|
|-7---8---5---7---8---12-| x2
|-x---x---x---x---x---x--|
|-5---6---3---5---6---10-|
|------------------------|

Interlude: w/ wah/wah and tremolo picking
|------------------------------------------------|
|--------------------------7---8---5-------------|
|-7---8---5---7---8---12---x---x---x---7---8---5-|
|-x---x---x---x---x---x----x---x---x---x---x---x-|
|-5---6---3---5---6---10---5---6---3---5---6---3-|
|------------------------------------------------|

Bridge:
|-------------------------------------------------------------------------|
|-------------------------------------------------------------------------|
|-------------------------------------------------------------------------|
|-0-0-0-0---0-0-0-0-1-1-1-1---1-1-1-1-0-0-0-0---0-0-0-0-5-5-5-5---5-5-5-5-|
|-0-0-0-0---0-0-0-0-1-1-1-1---1-1-1-1-0-0-0-0---0-0-0-0-5-5-5-5---5-5-5-5-|
|-0-0-0-0---0-0-0-0-1-1-1-1---1-1-1-1-0-0-0-0---0-0-0-0-5-5-5-5---5-5-5-5-|
Pm. . . .   . . . . . . . .   . . . . . . . .   . . . . . . . .   . . . .

|--------------------------------------------------------------------------|
|--------------------------------------------------------------------------|
|-------7---7---7-7-------8---8---8-8-------7---7---7-7-------8---8/-12-12-|
|-0-0-0-x---x-0-x-x-0-0-0-x---x-0-x-x-0-0-0-x---x-0-x-x-0-0-0-x---x--x--x--|
|-0-0-0-5---5-0-5-5-0-0-0-6---6-0-6-6-0-0-0-5---5-0-5-5-0-0-0-6---6/-10-10-|
|-0-0-0-0---0-0-0-0-0-0-0-0---0-0-0-0-0-0-0-0---0-0-0-0-0-0-0-0---0--0--0--|
Pm. . .       .     . . .       .     . . .       .     . . .

Pre-chorus 3: same pre-chorus 2

Chorus 3: same chorus 1

Pre-chorus 4: same pre-chorus 1


Tablature Keys:

h - hammer on
p - pull off
b - bend
r - relese bend
~ - sustain
/ - slide up
\ - slide down
v - vibrato
* - trill
x - mute string
pm - palm mute
nh - natural harmonic
ph - pitch harmonic
x\\\ - pick scr*pe (direction same as slide)
            
Hard to play? Try these video lessons and learn fast. | Correct




comments powered by Disqus
↑ Back to top | Tablatures and chords are parodies/interpretations of the original songs. You may use it for private study, scholarship, research or language learning purposes only