» » »

Drowning Pool, 37 Stitches Tabs (ver.2)

Artists:  A B C D E F G H I J K L M N O P Q R S T U V W X Y Z # 

37 Stitches Tabs (ver.2)

Drowning Pool Tabs
 Rating:
4/5 (7 votes)
37 Stitches lessons Tabs too difficult? Try these video lessons and learn fast
                ----------------------------------------------------------------------------
                     37 Stitches - Drowning Pool
----------------------------------------------------------------------------

Tuning:Drop B  Low to High: B-Gb-B-E-Ab-Db
Intro:
Db|-----------7------------------------------10-----------------------------|
Ab|-------------------------------------------------------------------------|
E |-------5-------5--------5-------------9--------9-------------9-----------|
B |----7------------7-----------------10-------------10---------------------|
Gb|-0------------------0----------0-----------------------0-----------------|
B |-------------------------------------------------------------------------|

Verse:

Db|---------------14--------------------------------------------------------|
Ab|---------------------------------------------0---------------------------|
E |---------11--------------------------------2----2--------2---------------|
B |-----12---------------12b12p10-----------2---------2---------------------|
Gb|--0-----------------------------12-----0--------------0------------------|
B |-------------------------------------------------------------------------|

Db|-------------------------------------------------------------------------|
Ab|------------3------------------------------7-----------------------------|
E |--------0------0---------0--------------0--------------------------------|
B |-----2------------2------------------4--------------Repeat---------------|
Gb|--3------------------3------------5--------------------------------------|
B |-------------------------------------------------------------------------|
Chorus:

Db|--0-----0---0-0---x-x-----0---0---x---0-------x----x---x-x---x-x---------|
Ab|--1-----1---1-1---x-x-----1---1---x---1-------8----8---8-8---x-x---------|
E |--2-----2---2-2---x-x-----0---0---x---0-------7----7---7-7---x-x---------|
B |--2-----2---2-2---x-x-----2---2---x---2-------5----5---5-5---x-x---------|
Gb|--0-----0---0-0---x-x-----3---3---x---3-------5----5---5-5---x-x---------|
B |----------------------------------------------5----5---5-5---x-x---------|

Db|-----------x--x----------------------------------------------------------|
Ab|--7---7----x--x----7---7-------------------------------------------------|
E |--7---7----x--x----7---7-------------------------------------------------|
B |--7---7----x--x----7---7------Repeat-------------------------------------|
Gb|--5---5----x--x----5---5----------------------------------------------- -|
B |-----------x--x----------------------------------------------------------|
 Thats about the whole song. I dont know the solo yet sorry.
___________________________________________________________________________
When the solo starts the distortion will kick in playing these chords.
____________________________________________________________________________
Db|--------------------------------------------------------------------------|
Ab|----------------------5---5--x--5--------8---8---8-8--x-x---7--7----------|
E |--2--2---2-2--x-x-----5---5--x--5--------7---7---7-7--x-x---7--7----------|
B |--2--2---2-2--x-x-----5---5--x--5--------5---5---5-5--x-x---7--7----------|
Gb|--0--0---0-0--x-x-----3---3--x--3--------5---5---5-5--x-x---5--5----------|
B |-----------------------------------------5---5---5-5--x-x-----------------|

Well thats my tab for 37 stitches. I hope you enjoy it.
        Please rate and tell me wat you think. ty

| /  slide up
| \  slide down
| h  hammer-on
| p  pull-off
| ~  vibrato
| +  harmonic
| x  Mute note
===============================================================================
            
Submit corrections

comments powered by Disqus
↑ Back to top | Drowning Pool Tabs for 37 Stitches. Lyrics for acoustic guitar and electric guitar. Tablatures and chords are parodies/interpretations of the original songs. You may use it for private study, scholarship, research or language learning purposes only