» » »

Syllables Tabs (ver.1)

Artists:  A B C D E F G H I J K L M N O P Q R S T U V W X Y Z # 

Syllables Tabs (ver.1)

Drivin N Cryin
Rating:
0/5 (0 votes)

Hard to play? Try these video lessons and learn fast.
                #------------------------------------------------------------------------------##

Drivin' N' Cryin'
Off of The Album "Mystery Road"
 
Well, this is a real simple punk number. Just two Chords, A5 and G5.  


Repeat this Pattern through out the Whole song:

   A5       G5       A5     G5  G5
e-----------------------------------
B-----------------------------------
G-----------------------------------
D--7-7-7-7--5-5-5-5--7-7-7--5---5-5-
A--7-7-7-7--5-5-5-5--7-7-7--5---5-5-
E--5-5-5-5--3-3-3-3--5-5-5--3---3-3-

Lyrics:
1 2 3 4

Run Me Down
and Carry Me
Mr. Lawman
Fine I saw
Your Book
Hold It high
and see me run

won't you let
me come undone
My Magic Carpet 
Needs a Ride

Little Mr. Sister
Well I can I tell
ya that I mess ya
When I can I
run a minute
without asking your son

Hold Me down
And I will Run
He was just a friend of Mine
But I can move his soul aside

(Solo)

Lawman Down
I'll set you
on a street
Lying down 
I'll paint
a mustasche

My gourgeous hair
and the sun and I
we were just in love
without
I like how everybody saw..


Then, here's the Outro Riff:

   A5     G5 A5     G5 A5     G5 A5
e--------------------------------------
B--------------------------------------
G--------------------------------------
D--7-7-7--5--7-7-7--5--7-7-7--5--7----7
A--7-7-7--5--7-7-7--5--7-7-7--5--7----7
E--5-5-5--3--5-5-5--3--5-5-5--3--5----5
          .         .         .

If you feel the need to write to me, Feel Free.
            
Hard to play? Try these video lessons and learn fast. | Correct




comments powered by Disqus
↑ Back to top | Tablatures and chords are parodies/interpretations of the original songs. You may use it for private study, scholarship, research or language learning purposes only