» » »

Drivin N Cryin, Smoke Tabs (ver.1)

Artists:  A B C D E F G H I J K L M N O P Q R S T U V W X Y Z # 

Smoke Tabs (ver.1)

Drivin N Cryin Tabs
 Rating:
4.2/5 (5 votes)
Smoke lessons Tabs too difficult? Try these video lessons and learn fast
                -------------------------------------------------------------------------------
-------------------------------------------------------------------------------

Tuning: Standard
I'm surprised this tab wasn't on here, it's one of my favorite songs by them and it's 
that hard to play.

Intro:
e|------------------------------------------|
B|------------------------------------------|
G|----4---4---4---4---2h4----4---4---4------|
D|------------------2h4---------------------|  x2
A|--2---2---2---2-----------2---2---2-------|
E|------------------------------------------|
(Hold the bottom 2 except on hammer-on's)
e|------------------------------------------|
B|------------------------------------------|
G|------------------------------------------|
D|----4---4---4---4-----2h4---4---4---4-----|  x2
A|------------------2h4---------------------|
E|--2---2---2---2-----------2---2---2-------|
(Hold the bottom 2 except on hammer-on's))

e|------------------------------------------|
B|------------------------------------------|
G|-----2---2---2---2----0h2----2---2---2----|
D|-------------------0h2--------------------|  x2
A|--0---0---0---0-----------0---0---0-------|
E|------------------------------------------|
(Hold Bottom 0 except on hammer-on's))

Verse:
e|------------------------------------|
B|------------------------------------|
G|---4-------7------------------------|
D|---4-------7-------5-------7--------| x4
A|---2-------5-------5-------7--------|
E|-------------------3-------5--------|
(Hold Each Chord)

Chorus:
e|------------------------------------|
B|------------------------------------|
G|---4--4----7------2-2-2-------------|
D|---4--4----7------2-2-2-------------| x8
A|---2--2----5------0-0-0-------------|
E|------------------------------------|
(Slide up to the D power chord and don't let it ring out)

Verse

Chorus

Intro

Verse

Chorus Until The End

End:
e|------------------------------------|
B|------------------------------------|
G|---4--4----7------2-2-2--4----------|
D|---4--4----7------2-2-2--4----------|
A|---2--2----5------0-0-0--2----------|
E|------------------------------------|

That's it, thanks for looking at my tab for this awesome song.  I think it sounds 
************************************

| /   slide up
| \   slide down
| h   hammer-on
| p   pull-off
| ~   vibrato
| +   harmonic
| x   Mute note
| b   Bend
| pb  Pre-bend
| br  Bend release
| pbr Pre-bend release
| brb Bend release bend

************************************
            
Submit corrections

comments powered by Disqus
↑ Back to top | Drivin N Cryin Tabs for Smoke. Lyrics for acoustic guitar and electric guitar. Tablatures and chords are parodies/interpretations of the original songs. You may use it for private study, scholarship, research or language learning purposes only