» » »

Drivin N Cryin, Honeysuckle Blue Bass tabs (ver.1)

Artists:  A B C D E F G H I J K L M N O P Q R S T U V W X Y Z # 

Honeysuckle Blue Bass tabs (ver.1)

Drivin N Cryin Tabs
Rating:
0/5 (0 votes)
Honeysuckle Blue lessons Tabs too difficult? Try these video lessons and learn fast
                ----------------------------------------------------------------------------
----------------------------------------------------------------------------


Tuning: Standard

This song follows A G D A. bass plays this throughout the song.
Listen to the song to find the rhythm.

Intro
G|---------------------------------|
D|---------------------------------|
A|-----------------5-5-------------|
E|--5-5-----3-3-----------5-5------|

Verse/Chorus/Solo
G|---------------------------------|
D|---------------------------------|
A|----------------5----------------|
E|--5------3-------------5---------|


Song Order

intro
verse
intro
solo
intro
verse
intro
chorus
intro

As you can see the song does'nt change much from the A G D A format.
You can add in extra notes and slides as you like, there are plenty of extra notes 
played in the recording. Just be sure to listen to the song for the rhythm.

| /  slide up
| \  slide down
| h  hammer-on
| p  pull-off
| ~  vibrato
| +  harmonic
| x  Mute note
============================================================================
            

comments powered by Disqus
↑ Back to top | Drivin N Cryin Bass for Honeysuckle Blue. Lyrics for acoustic guitar and electric guitar. Tablatures and chords are parodies/interpretations of the original songs. You may use it for private study, scholarship, research or language learning purposes only