» » »

Drive, Sever Tabs (ver.1)

Artists:  A B C D E F G H I J K L M N O P Q R S T U V W X Y Z # 

Sever Tabs (ver.1)

Drive Tabs
 Rating:
4/5 (4 votes)
Sever lessons Tabs too difficult? Try these video lessons and learn fast
1
                "Sever" - The Drive

My first tab... standard tuning

SEVER:

GUITAR 1:
(Clean)
E|----------------------------------------------------------------------------------------------------------|
B|----------------------------------------------------------------------------------------------------------|
G|----------------------------------------------------------------------------------------------------------|
D|-1-1-1-1-2h1-1-1------------------1------1-------------1-1-1-1-2h1-1-1------------------------------------|
A|------------------------3-4-5-1-1-1---1-1-1-1-1-1-1-1----------------------3-4-5-1-1-1-1-1-1-1-1-1-1-1-1--|
E|----------------------------------------------------------------------------------------------------------|

GUITAR 2:
x

GUITAR 1:
(Clean)
E|----------------------------------------------------------------------------------------------------------|
B|----------------------------------------------------------------------------------------------------------|
G|----------------------------------------------------------------------------------------------------------|
D|-1-1-1-1-2h1-1-1-----------------------------------------1-1-1-1-2h1-1-1----------------------------------|
A|-----------------------3-4-5-1-1-1-1-1-1-1-1-1-1-1-1-----------------------3-4-5-1-1-1-1-1-1-1-1-1-1-1-1--|
E|----------------------------------------------------------------------------------------------------------|

GUITAR 2:
(Distorted)
E|------------------------------------------------------------------------------------------------------------------------|
B|------------------------------------------------------------------------------------------------------------------------|
G|-------------------------------------------------------------------------------------------------------------3~~~~~~~~--|
D|-------------------------------------------------------------------------------------------------------------3~~~~~~~~--|
A|-------------------------------------------------------------------------------------------------------------1~~~~~~~~--|
E|------------------------------------------------------------------------------------------------------------------------|

GUITAR 1:
(Clean)
E|----------------------------------------------------------------------------------------------------------|
B|----------------------------------------------------------------------------------------------------------|
G|----------------------------------------------------------------------------------------------------------|
D|-1-1-1-1-2h1-1-1-----------------------------------------1-1-1-1-2h1-1-1----------------------------------|
A|-----------------------3-4-5-1-1-1-1-1-1-1-1-1-1-1-1-----------------------3-4-5-1-1-1-1-1-1-1-1-1-1-1-1--|
E|----------------------------------------------------------------------------------------------------------|

GUITAR 2:
(Distorted)
E|---------------------------------------------------------------------------------|
B|---------------------------------------------------------------------------------|
G|-8-8-8-8-8-8-8-8-9/8-8-8-8/3-3-3-3-3-3-3-3-3-3-3-3-3-3-3-3-----------------------|
D|-8-8-8-8-8-8-8-8-9/8-8-8-8/3-3-3-3-3-3-3-3-3-3-3-3-3-3-3-3-----------------------|
A|-6-6-6-6-6-6-6-6-7/6-6-6-6/1-1-1-1-1-1-1-1-1-1-1-1-1-1-1-1-----------------------|
E|---------------------------------------------------------------------------------|

GUITAR 1:
(Clean)
E|----------------------------------------------------------------------------------------------------------|
B|----------------------------------------------------------------------------------------------------------|
G|----------------------------------------------------------------------------------------------------------|
D|-1-1-1-1-2h1-1-1-----------------------------------------1-1-1-1-2h1-1-1----------------------------------|
A|-----------------------3-4-5-1-1-1-1-1-1-1-1-1-1-1-1-----------------------3-4-5-1-1-1-1-1-1-1-1-1-1-1-1--|
E|----------------------------------------------------------------------------------------------------------|

GUITAR 2:
(Distorted)
E|---------------------------------------------------------------------------------|
B|---------------------------------------------------------------------------------|
G|-8-8-8-8-8-8-8-8-9/8-8-8-8/3-3-3-3-3-3-3-3-3-3-3-3-3-3-3-3-----------------------|
D|-8-8-8-8-8-8-8-8-9/8-8-8-8/3-3-3-3-3-3-3-3-3-3-3-3-3-3-3-3-----------------------|
A|-6-6-6-6-6-6-6-6-7/6-6-6-6/1-1-1-1-1-1-1-1-1-1-1-1-1-1-1-1-----------------------|
E|---------------------------------------------------------------------------------|

GUITAR 1:
(Distorted)
E|-------------------------------------------------------------------------------|
B|-------------------------------------------------------------------------------|
G|-3-3-3-3-3-3----------------------------------3-3-3-3-3-5-5-5-5-5--------------|
D|-3-3-3-3-3-3-6-6-6-6-6-6-4-4-4-4-4-4-3-3-3-3-3-5-5-5-5-5-----------------------|
A|-1-1-1-1-1-1-6-6-6-6-6-6-4-4-4-4-4-4-1-1-1-1-1-3-3-3-3-3-----------------------|
E|-----------------4-4-4-4-4-4-2-2-2-2-2-2---------------------------------------|

GUITAR 2:
(Distorted)
E|-------------------------------------------------------------------------------|
B|-------------------------------------------------------------------------------|
G|----------------3--------------------------------------------------------------|
D|--------------------------------6----------------------------------------------|
A|-------------------------------------------------------------------------------|
E|-------------------------------------------------------------------------------|

GUITAR 1:
(Distorted)
E|-------------------------------------------------------------------------------|
B|-------------------------------------------------------------------------------|
G|-3-3-3-3-3-3----------------------------------3-3-3-3-3-5-5-5-5-5--------------|
D|-3-3-3-3-3-3-6-6-6-6-6-6-4-4-4-4-4-4-3-3-3-3-3-5-5-5-5-5-----------------------|
A|-1-1-1-1-1-1-6-6-6-6-6-6-4-4-4-4-4-4-1-1-1-1-1-3-3-3-3-3-----------------------|
E|-----------------4-4-4-4-4-4-2-2-2-2-2-2---------------------------------------|

GUITAR 2:
(Distorted)
E|-------------------------------------------------------------------------------|
B|-------------------------------------------------------------------------------|
G|----------------3--------------------------------------------------------------|
D|--------------------------------6----------------------------------------------|
A|-------------------------------------------------------------------------------|
E|-------------------------------------------------------------------------------|

GUITAR 1:
(Distorted)
E|-------------------------------------------------------------------------------|
B|-------------------------------------------------------------------------------|
G|-3-3-3-3-3-3----------------------------------3-3-3-3-3-5-5-5-5-5--------------|
D|-3-3-3-3-3-3-6-6-6-6-6-6-4-4-4-4-4-4-3-3-3-3-3-5-5-5-5-5-----------------------|
A|-1-1-1-1-1-1-6-6-6-6-6-6-4-4-4-4-4-4-1-1-1-1-1-3-3-3-3-3-----------------------|
E|-----------------4-4-4-4-4-4-2-2-2-2-2-2---------------------------------------|

GUITAR 2:
(Distorted)
E|-------------------------------------------------------------------------------|
B|-------------------------------------------------------------------------------|
G|----------------3--------------------------------------------------------------|
D|--------------------------------6----------------------------------------------|
A|-------------------------------------------------------------------------------|
E|-------------------------------------------------------------------------------|

GUITAR 1:
(Distorted)
E|-------------------------------------------------------------------------------|
B|-------------------------------------------------------------------------------|
G|-3-3-3-3-3-3----------------------------------3-3-3-3-3-5-5-5-5-5--------------|
D|-3-3-3-3-3-3-6-6-6-6-6-6-4-4-4-4-4-4-3-3-3-3-3-5-5-5-5-5-----------------------|
A|-1-1-1-1-1-1-6-6-6-6-6-6-4-4-4-4-4-4-1-1-1-1-1-3-3-3-3-3-----------------------|
E|-----------------4-4-4-4-4-4-2-2-2-2-2-2---------------------------------------|

GUITAR 2:
(Distorted)
E|-------------------------------------------------------------------------------|
B|-------------------------------------------------------------------------------|
G|----------------3--------------------------------------------------------------|
D|--------------------------------6----------------------------------------------|
A|-------------------------------------------------------------------------------|
E|-------------------------------------------------------------------------------|

GUITAR 1:
(Distorted)
E|--------------------------------------------------------|
B|--------------------------------------------------------|
G|-8-8-8-8-8-8-8-8-8-8-8-8-8-8-8-8-8-8-8-8----------------|
D|-8-8-8-8-8-8-8-8-8-8-8-8-8-8-8-8-8-8-8-8----------------|
A|-6-6-6-6-6-6-6-6-6-6-6-6-6-6-6-6-6-6-6-6----------------|
E|--------------------------------------------------------|

GUITAR 2:
(Distorted)
E|-----------------------------------------------------------------------------|
B|-----------------------------------------------------------------------------|
G|-----------------------------------------------------------------------------|
D|---------------------------0h1-2h1---------------------------0h1-2h1---------|
A|-----------------------------------------------------------------------------|
E|-----------------------------------------------------------------------------|

GUITAR 1:
(Distorted)
E|--------------------------------------------------------|
B|--------------------------------------------------------|
G|-8-8-8-8-8-8-8-8-8-8-8-8-8-8-8-8-8-8-8-8----------------|
D|-8-8-8-8-8-8-8-8-8-8-8-8-8-8-8-8-8-8-8-8----------------|
A|-6-6-6-6-6-6-6-6-6-6-6-6-6-6-6-6-6-6-6-6----------------|
E|--------------------------------------------------------|

GUITAR 2:
(Distorted)
E|-----------------------------------------------------------------------------|
B|-----------------------------------------------------------------------------|
G|-----------------------------------------------------------------------------|
D|---------------------------0h1-2h1---------------------------0h1-2h1---------|
A|-----------------------------------------------------------------------------|
E|-----------------------------------------------------------------------------|

GUITAR 1:
(Distorted)
E|--------------------------------------------------------|
B|--------------------------------------------------------|
G|-8-8-8-8-8-8-8-8-8-8-8-8-8-8-8-8-8-8-8-8----------------|
D|-8-8-8-8-8-8-8-8-8-8-8-8-8-8-8-8-8-8-8-8----------------|
A|-6-6-6-6-6-6-6-6-6-6-6-6-6-6-6-6-6-6-6-6----------------|
E|--------------------------------------------------------|

GUITAR 2:
(Distorted)
E|-----------------------------------------------------------------------------|
B|-----------------------------------------------------------------------------|
G|-----------------------------------------------------------------------------|
D|---------------------------0h1-2h1---------------------------0h1-2h1---------|
A|-----------------------------------------------------------------------------|
E|-----------------------------------------------------------------------------|

GUITAR 1:
(Clean)
E|----------------------------------------------------------------------------------------------------------|
B|----------------------------------------------------------------------------------------------------------|
G|----------------------------------------------------------------------------------------------------------|
D|-1-1-1-1-2h1-1-1-----------------------------------------1-1-1-1-2h1-1-1----------------------------------|
A|-----------------------3-4-5-1-1-1-1-1-1-1-1-1-1-1-1-----------------------3-4-5-1-1-1-1-1-1-1-1-1-1-1-1--|
E|----------------------------------------------------------------------------------------------------------|

GUITAR 2:
(Distorted)
E|---------------------------------------------------------------------------------|
B|---------------------------------------------------------------------------------|
G|-8-8-8-8-8-8-8-8-9/8-8-8-8/3-3-3-3-3-3-3-3-3-3-3-3-3-3-3-3-----------------------|
D|-8-8-8-8-8-8-8-8-9/8-8-8-8/3-3-3-3-3-3-3-3-3-3-3-3-3-3-3-3-----------------------|
A|-6-6-6-6-6-6-6-6-7/6-6-6-6/1-1-1-1-1-1-1-1-1-1-1-1-1-1-1-1-----------------------|
E|---------------------------------------------------------------------------------|

GUITAR 1:
(Clean)
E|----------------------------------------------------------------------------------------------------------|
B|----------------------------------------------------------------------------------------------------------|
G|----------------------------------------------------------------------------------------------------------|
D|-1-1-1-1-2h1-1-1-----------------------------------------1-1-1-1-2h1-1-1----------------------------------|
A|-----------------------3-4-5-1-1-1-1-1-1-1-1-1-1-1-1-----------------------3-4-5-1-1-1-1-1-1-1-1-1-1-1-1--|
E|----------------------------------------------------------------------------------------------------------|

GUITAR 2:
(Distorted)
E|---------------------------------------------------------------------------------|
B|---------------------------------------------------------------------------------|
G|-8-8-8-8-8-8-8-8-9/8-8-8-8/3-3-3-3-3-3-3-3-3-3-3-3-3-3-3-3-----------------------|
D|-8-8-8-8-8-8-8-8-9/8-8-8-8/3-3-3-3-3-3-3-3-3-3-3-3-3-3-3-3-----------------------|
A|-6-6-6-6-6-6-6-6-7/6-6-6-6/1-1-1-1-1-1-1-1-1-1-1-1-1-1-1-1-----------------------|
E|---------------------------------------------------------------------------------|

GUITAR 1:
(Distorted)
E|-------------------------------------------------------------------------------|
B|-------------------------------------------------------------------------------|
G|-3-3-3-3-3-3----------------------------------3-3-3-3-3-5-5-5-5-5--------------|
D|-3-3-3-3-3-3-6-6-6-6-6-6-4-4-4-4-4-4-3-3-3-3-3-5-5-5-5-5-----------------------|
A|-1-1-1-1-1-1-6-6-6-6-6-6-4-4-4-4-4-4-1-1-1-1-1-3-3-3-3-3-----------------------|
E|-----------------4-4-4-4-4-4-2-2-2-2-2-2---------------------------------------|

GUITAR 2:
(Distorted)
E|-------------------------------------------------------------------------------|
B|-------------------------------------------------------------------------------|
G|----------------3--------------------------------------------------------------|
D|--------------------------------6----------------------------------------------|
A|-------------------------------------------------------------------------------|
E|-------------------------------------------------------------------------------|

GUITAR 1:
(Distorted)
E|-------------------------------------------------------------------------------|
B|-------------------------------------------------------------------------------|
G|-3-3-3-3-3-3----------------------------------3-3-3-3-3-5-5-5-5-5--------------|
D|-3-3-3-3-3-3-6-6-6-6-6-6-4-4-4-4-4-4-3-3-3-3-3-5-5-5-5-5-----------------------|
A|-1-1-1-1-1-1-6-6-6-6-6-6-4-4-4-4-4-4-1-1-1-1-1-3-3-3-3-3-----------------------|
E|-----------------4-4-4-4-4-4-2-2-2-2-2-2---------------------------------------|

GUITAR 2:
(Distorted)
E|-------------------------------------------------------------------------------|
B|-------------------------------------------------------------------------------|
G|----------------3--------------------------------------------------------------|
D|--------------------------------6----------------------------------------------|
A|-------------------------------------------------------------------------------|
E|-------------------------------------------------------------------------------|

GUITAR 1:
(Distorted)
E|-------------------------------------------------------------------------------|
B|-------------------------------------------------------------------------------|
G|-3-3-3-3-3-3----------------------------------3-3-3-3-3-5-5-5-5-5--------------|
D|-3-3-3-3-3-3-6-6-6-6-6-6-4-4-4-4-4-4-3-3-3-3-3-5-5-5-5-5-----------------------|
A|-1-1-1-1-1-1-6-6-6-6-6-6-4-4-4-4-4-4-1-1-1-1-1-3-3-3-3-3-----------------------|
E|-----------------4-4-4-4-4-4-2-2-2-2-2-2---------------------------------------|

GUITAR 2:
(Distorted)
E|-------------------------------------------------------------------------------|
B|-------------------------------------------------------------------------------|
G|----------------3--------------------------------------------------------------|
D|--------------------------------6----------------------------------------------|
A|-------------------------------------------------------------------------------|
E|-------------------------------------------------------------------------------|

GUITAR 1:
(Distorted)
E|-----------------------------------------------------------------------|
B|-----------------------------------------------------------------------|
G|-----------------------------------------------------------------------|
D|-----------------------------------------------------------------------|
A|----------------6h7h6-6-6-4-2--------------6h7h6-6-6-4-2---------------|
E|-----------------------------------------------------------------------|

GUITAR 2:
(Distorted)
E|------------------------------------------------------------------------|
B|------------------------------------------------------------------------|
G|-8-8-8-8-8----------------------8-8-8-8-8-------------------------------|
D|-8-8-8-8-8----------------------8-8-8-8-8-------------------------------|
A|-6-6-6-6-6----------------------6-6-6-6-6-------------------------------|
E|------------------------------------------------------------------------|

GUITAR 1:
(Distorted)
E|-----------------------------------------------------------------------|
B|-----------------------------------------------------------------------|
G|-----------------------------------------------------------------------|
D|-----------------------------------------------------------------------|
A|----------------6h7h6-6-6-4-2--------------6h7h6-6-6-4-2---------------|
E|-----------------------------------------------------------------------|

GUITAR 2:
(Distorted)
E|------------------------------------------------------------------------|
B|------------------------------------------------------------------------|
G|-8-8-8-8-8----------------------8-8-8-8-8-------------------------------|
D|-8-8-8-8-8----------------------8-8-8-8-8-------------------------------|
A|-6-6-6-6-6----------------------6-6-6-6-6-------------------------------|
E|------------------------------------------------------------------------|

GUITAR 1:
(Distorted)
E|-----------------------------------------------------------------------|
B|-----------------------------------------------------------------------|
G|-----------------------------------------------------------------------|
D|-----------------------------------------------------------------------|
A|----------------6h7h6-6-6-4-2--------------6h7h6-6-6-4-2---------------|
E|-----------------------------------------------------------------------|

GUITAR 2:
(Distorted)
E|------------------------------------------------------------------------|
B|------------------------------------------------------------------------|
G|-8-8-8-8-8----------------------8-8-8-8-8-------------------------------|
D|-8-8-8-8-8----------------------8-8-8-8-8-------------------------------|
A|-6-6-6-6-6----------------------6-6-6-6-6-------------------------------|
E|------------------------------------------------------------------------|

GUITAR 1:
(Distorted)
E|-----------------------------------------------------------------------|
B|-----------------------------------------------------------------------|
G|-----------------------------------------------------------------------|
D|-----------------------------------------------------------------------|
A|----------------6h7h6-6-6-4-2--------------6h7h6-6-6-4-2---------------|
E|-----------------------------------------------------------------------|

GUITAR 2:
(Distorted)
E|------------------------------------------------------------------------|
B|------------------------------------------------------------------------|
G|-8-8-8-8-8----------------------8-8-8-8-8-------------------------------|
D|-8-8-8-8-8----------------------8-8-8-8-8-------------------------------|
A|-6-6-6-6-6----------------------6-6-6-6-6-------------------------------|
E|------------------------------------------------------------------------|

GUITAR 1:
(Distorted)
E|-5~5-4~4-3~3-1h3-5h4-3-1h3-1h3------------------|
B|------------------------------------------------|
G|------------------------------------------------|
D|------------------------------------------------|
A|------------------------------------------------|
E|------------------------------------------------|

GUITAR 2:
(Distorted)
E|------------------------------------------------|
B|------------------------------------------------|
G|-8-8-8-8-8-8-8-8-8-8-8-8-8-8-8-8-8--------------|
D|-8-8-8-8-8-8-8-8-8-8-8-8-8-8-8-8-8--------------|
A|-6-6-6-6-6-6-6-6-6-6-6-6-6-6-6-6-6--------------|
E|------------------------------------------------|

GUITAR 1:
(Clean)
E|-5~5-4~4-3~3-1h3-5h4-3-1h3-1h3------------------|
B|------------------------------------------------|
G|------------------------------------------------|
D|------------------------------------------------|
A|------------------------------------------------|
E|------------------------------------------------|

GUITAR 2:
(Distorted)
E|------------------------------------------------|
B|------------------------------------------------|
G|-8~---------------------------------------------|
D|-8~---------------------------------------------|
A|-6~---------------------------------------------|
E|------------------------------------------------|

GUITAR 1:
(Clean)
E|-5-5-5-11-7-5-4-4-4-11-7-4-3-3-3-11-7-3-2-2-2-11-7-2----------------------|
B|--------------------------------------------------------------------------|
G|--------------------------------------------------------------------------|
D|--------------------------------------------------------------------------|
A|--------------------------------------------------------------------------|
E|--------------------------------------------------------------------------|

GUITAR 2:
x

GUITAR 1:
(Clean)
E|-5-5-5-11-7-5-4-4-4-11-7-4-3-3-3-11-7-3-2-2-2-11-7-2----------------------|
B|--------------------------------------------------------------------------|
G|--------------------------------------------------------------------------|
D|--------------------------------------------------------------------------|
A|--------------------------------------------------------------------------|
E|--------------------------------------------------------------------------|

GUITAR 2:
x

GUITAR 1:
(Clean)
E|-5-5-5-11-7-5-4-4-4-11-7-4-3-3-3-11-7-3-2-2-2-11-7-2----------------------|
B|--------------------------------------------------------------------------|
G|--------------------------------------------------------------------------|
D|--------------------------------------------------------------------------|
A|--------------------------------------------------------------------------|
E|--------------------------------------------------------------------------|

GUITAR 2:
(Distorted)
E|-5-5-5-11-7-5-4-4-4-11-7-4-3-3-3-11-7-3-2-2-2-11-7-2----------------------|
B|--------------------------------------------------------------------------|
G|--------------------------------------------------------------------------|
D|--------------------------------------------------------------------------|
A|--------------------------------------------------------------------------|
E|--------------------------------------------------------------------------|

GUITAR 1:
(Clean)
E|-5-5-5-11-7-5-4-4-4-11-7-4-3-3-3-11-7-3-2-2-2-11-7-2----------------------|
B|--------------------------------------------------------------------------|
G|--------------------------------------------------------------------------|
D|--------------------------------------------------------------------------|
A|--------------------------------------------------------------------------|
E|--------------------------------------------------------------------------|

GUITAR 2:
(Distorted)
E|-5-5-5-11-7-5-4-4-4-11-7-4-3-3-3-11-7-3-2-2-2-11-7-2----------------------|
B|--------------------------------------------------------------------------|
G|--------------------------------------------------------------------------|
D|--------------------------------------------------------------------------|
A|--------------------------------------------------------------------------|
E|--------------------------------------------------------------------------|

GUITAR 1:
(Distorted)
E|--------------------------------------------------------------------------------------------|
B|--------------------------------------------------------------------------------------------|
G|--------------------------------------------------------------------------------------------|
D|101010101-8-8-8-6-6-8-5-5-5-5-5-5-5-5-5-101010101-8-8-8-6-6-8-5-5-5-5-5-5-5-5-5-5-5-5-------|
A|101010101-8-8-8-6-6-8-5-5-5-5-5-5-5-5-5-101010101-8-8-8-6-6-8-5-5-5-5-5-5-5-5-5-5-5-5-------|
E|-8-8-8-8-8-8-6-6-6-4-4-6-3-3-3-3-3-3-3-3-3-8-8-8-8-8-8-6-6-6-4-4-6-3-3-3-3-3-3-3-3-3-3-3-3--|

GUITAR 2:
(Distorted)
E|--------------------------------------------------------------------------------------------|
B|--------------------------------------------------------------------------------------------|
G|--------------------------------------------------------------------------------------------|
D|101010101-8-8-8-6-6-8-5-5-5-5-5-5-5-5-5-101010101-8-8-8-6-6-8-5-5-5-5-5-5-5-5-5-5-5-5-------|
A|101010101-8-8-8-6-6-8-5-5-5-5-5-5-5-5-5-101010101-8-8-8-6-6-8-5-5-5-5-5-5-5-5-5-5-5-5-------|
E|-8-8-8-8-8-8-6-6-6-4-4-6-3-3-3-3-3-3-3-3-3-8-8-8-8-8-8-6-6-6-4-4-6-3-3-3-3-3-3-3-3-3-3-3-3--|

GUITAR 1:
(Distorted)
E|--------------------------------------------------------------------------------------------|
B|--------------------------------------------------------------------------------------------|
G|--------------------------------------------------------------------------------------------|
D|101010101-8-8-8-6-6-8-5-5-5-5-5-5-5-5-5-101010101-8-8-8-6-6-8-5-5-5-5-5-5-5-5-5-5-5-5-------|
A|101010101-8-8-8-6-6-8-5-5-5-5-5-5-5-5-5-101010101-8-8-8-6-6-8-5-5-5-5-5-5-5-5-5-5-5-5-------|
E|-8-8-8-8-8-8-6-6-6-4-4-6-3-3-3-3-3-3-3-3-3-8-8-8-8-8-8-6-6-6-4-4-6-3-3-3-3-3-3-3-3-3-3-3-3--|

GUITAR 2:
(Distorted)
E|--------------------------------------------------------------------------------------------|
B|--------------------------------------------------------------------------------------------|
G|--------------------------------------------------------------------------------------------|
D|101010101-8-8-8-6-6-8-5-5-5-5-5-5-5-5-5-101010101-8-8-8-6-6-8-5-5-5-5-5-5-5-5-5-5-5-5-------|
A|101010101-8-8-8-6-6-8-5-5-5-5-5-5-5-5-5-101010101-8-8-8-6-6-8-5-5-5-5-5-5-5-5-5-5-5-5-------|
E|-8-8-8-8-8-8-6-6-6-4-4-6-3-3-3-3-3-3-3-3-3-8-8-8-8-8-8-6-6-6-4-4-6-3-3-3-3-3-3-3-3-3-3-3-3--|

GUITAR 1:
(Distorted)
E|-8~11~4~8~11~15-8~11~4~8~11~15
B|-----------------------------------------------------|
G|-----------------------------------------------------|
D|-----------------------------------------------------|
A|-----------------------------------------------------|
E|-----------------------------------------------------|

GUITAR 2:
(Distorted)
E|--------------------------------------------------------------------------------------------|
B|--------------------------------------------------------------------------------------------|
G|--------------------------------------------------------------------------------------------|
D|101010101-8-8-8-6-6-8-5-5-5-5-5-5-5-5-5-101010101-8-8-8-6-6-8-5-5-5-5-5-5-5-5-5-5-5-5-------|
A|101010101-8-8-8-6-6-8-5-5-5-5-5-5-5-5-5-101010101-8-8-8-6-6-8-5-5-5-5-5-5-5-5-5-5-5-5-------|
E|-8-8-8-8-8-8-6-6-6-4-4-6-3-3-3-3-3-3-3-3-3-8-8-8-8-8-8-6-6-6-4-4-6-3-3-3-3-3-3-3-3-3-3-3-3--|

GUITAR 1:
(Distorted)
E|-20-20-18-17-13-13-15-13-1120-20-18-17-13-13-15~--------------------------|
B|--------------------------------------------------------------------------|
G|--------------------------------------------------------------------------|
D|--------------------------------------------------------------------------|
A|--------------------------------------------------------------------------|
E|--------------------------------------------------------------------------|

GUITAR 2:
x

GUITAR 1:
(Distorted)
E|-8~11~4~8~11~15-8~11~4~8~11~15
B|-----------------------------------------------------|
G|-----------------------------------------------------|
D|-----------------------------------------------------|
A|-----------------------------------------------------|
E|-----------------------------------------------------|

GUITAR 2:
(Distorted)
E|--------------------------------------------------------------------------------------------|
B|--------------------------------------------------------------------------------------------|
G|--------------------------------------------------------------------------------------------|
D|101010101-8-8-8-6-6-8-5-5-5-5-5-5-5-5-5-101010101-8-8-8-6-6-8-5-5-5-5-5-5-5-5-5-5-5-5-------|
A|101010101-8-8-8-6-6-8-5-5-5-5-5-5-5-5-5-101010101-8-8-8-6-6-8-5-5-5-5-5-5-5-5-5-5-5-5-------|
E|-8-8-8-8-8-8-6-6-6-4-4-6-3-3-3-3-3-3-3-3-3-8-8-8-8-8-8-6-6-6-4-4-6-3-3-3-3-3-3-3-3-3-3-3-3--|

GUITAR 1:
(Distorted)
E|--------------------------------------------------------------------------------------------|
B|--------------------------------------------------------------------------------------------|
G|--------------------------------------------------------------------------------------------|
D|101010101-8-8-8-6-6-8-5-5-5-5-5-5-5-5-5-101010101-8-8-8-6-6-8-5-5-5-5-5-5-5-5-5-5-5-5-------|
A|101010101-8-8-8-6-6-8-5-5-5-5-5-5-5-5-5-101010101-8-8-8-6-6-8-5-5-5-5-5-5-5-5-5-5-5-5-------|
E|-8-8-8-8-8-8-6-6-6-4-4-6-3-3-3-3-3-3-3-3-3-8-8-8-8-8-8-6-6-6-4-4-6-3-3-3-3-3-3-3-3-3-3-3-3--|

GUITAR 2:
(Distorted)
E|--------------------------------------------------------------------------------------------|
B|--------------------------------------------------------------------------------------------|
G|--------------------------------------------------------------------------------------------|
D|101010101-8-8-8-6-6-8-5-5-5-5-5-5-5-5-5-101010101-8-8-8-6-6-8-5-5-5-5-5-5-5-5-5-5-5-5-------|
A|101010101-8-8-8-6-6-8-5-5-5-5-5-5-5-5-5-101010101-8-8-8-6-6-8-5-5-5-5-5-5-5-5-5-5-5-5-------|
E|-8-8-8-8-8-8-6-6-6-4-4-6-3-3-3-3-3-3-3-3-3-8-8-8-8-8-8-6-6-6-4-4-6-3-3-3-3-3-3-3-3-3-3-3-3--|

GUITAR 1:
(Distorted)
E|--------------------------------------------------------------------------------------------|
B|--------------------------------------------------------------------------------------------|
G|--------------------------------------------------------------------------------------------|
D|101010101-8-8-8-6-6-8-5-5-5-5-5-5-5-5-5-101010101-8-8-8-6-6-8-5-5-5-5-5-5-5-5-5-5-5-5-------|
A|101010101-8-8-8-6-6-8-5-5-5-5-5-5-5-5-5-101010101-8-8-8-6-6-8-5-5-5-5-5-5-5-5-5-5-5-5-------|
E|-8-8-8-8-8-8-6-6-6-4-4-6-3-3-3-3-3-3-3-3-3-8-8-8-8-8-8-6-6-6-4-4-6-3-3-3-3-3-3-3-3-3-3-3-3--|

GUITAR 2:
(Distorted)
E|--------------------------------------------------------------------------------------------|
B|--------------------------------------------------------------------------------------------|
G|--------------------------------------------------------------------------------------------|
D|101010101-8-8-8-6-6-8-5-5-5-5-5-5-5-5-5-101010101-8-8-8-6-6-8-5-5-5-5-5-5-5-5-5-5-5-5-------|
A|101010101-8-8-8-6-6-8-5-5-5-5-5-5-5-5-5-101010101-8-8-8-6-6-8-5-5-5-5-5-5-5-5-5-5-5-5-------|
E|-8-8-8-8-8-8-6-6-6-4-4-6-3-3-3-3-3-3-3-3-3-8-8-8-8-8-8-6-6-6-4-4-6-3-3-3-3-3-3-3-3-3-3-3-3--|

GUITAR 1:
(Distorted)
E|----
B|----
G|----
D|-5~
A|-5~
E|-3~

GUITAR 2:
x

(Rythym section only from 5:52 - 6:10)

GUITAR 1:
(Distorted, muted)
E|--------------------------------------------------------------------------------------------|
B|--------------------------------------------------------------------------------------------|
G|--------------------------------------------------------------------------------------------|
D|101010101-8-8-8-6-6-8-5-5-5-5-5-5-5-5-5-101010101-8-8-8-6-6-8-5-5-5-5-5-5-5-5-5-5-5-5-------|
A|101010101-8-8-8-6-6-8-5-5-5-5-5-5-5-5-5-101010101-8-8-8-6-6-8-5-5-5-5-5-5-5-5-5-5-5-5-------|
E|-8-8-8-8-8-8-6-6-6-4-4-6-3-3-3-3-3-3-3-3-3-8-8-8-8-8-8-6-6-6-4-4-6-3-3-3-3-3-3-3-3-3-3-3-3--|

GUITAR 2:
x

GUITAR 1:
(Distorted)
E|-8-8-8-8-8-8-6-6-6-4-4-6-3-3-3-3-3-3-3-3-3-8-8-8-8-8-8-6-6-6-4-4-6-3-3-3-3-3-3-3-3-3-3-3-3--|
B|--------------------------------------------------------------------------------------------|
G|--------------------------------------------------------------------------------------------|
D|--------------------------------------------------------------------------------------------|
A|--------------------------------------------------------------------------------------------|
E|--------------------------------------------------------------------------------------------|

GUITAR 2:
(Distorted)
E|--------------------------------------------------------------------------------------------|
B|--------------------------------------------------------------------------------------------|
G|--------------------------------------------------------------------------------------------|
D|101010101-8-8-8-6-6-8-5-5-5-5-5-5-5-5-5-101010101-8-8-8-6-6-8-5-5-5-5-5-5-5-5-5-5-5-5-------|
A|101010101-8-8-8-6-6-8-5-5-5-5-5-5-5-5-5-101010101-8-8-8-6-6-8-5-5-5-5-5-5-5-5-5-5-5-5-------|
E|-8-8-8-8-8-8-6-6-6-4-4-6-3-3-3-3-3-3-3-3-3-8-8-8-8-8-8-6-6-6-4-4-6-3-3-3-3-3-3-3-3-3-3-3-3--|

GUITAR 1:
(Distorted)
E|-8-8-8-8-8-8-6-6-6-4-4-6-15-20-20-20-20-20-20-18-18-18-16-16-18-15-16~18~20--|
B|-----------------------------------------------------------------------------|
G|-----------------------------------------------------------------------------|
D|-----------------------------------------------------------------------------|
A|-----------------------------------------------------------------------------|
E|-----------------------------------------------------------------------------|

GUITAR 2:
(Distorted)
E|-----------------------------------------------------------------------------------|
B|-----------------------------------------------------------------------------------|
G|-----------------------------------------------------------------------------------|
D|101010101-8-8-8-6-6-8-5-5-5-5-5-5-5-5-5-101010101-8-8-8-6-6-8-5-5-5-5-5-5-5~-------|
A|101010101-8-8-8-6-6-8-5-5-5-5-5-5-5-5-5-101010101-8-8-8-6-6-8-5-5-5-5-5-5-5~-------|
E|-8-8-8-8-8-8-6-6-6-4-4-6-3-3-3-3-3-3-3-3-3-8-8-8-8-8-8-6-6-6-4-4-6-3-3-3-3-3-3-3~--|
            
Submit corrections

comments powered by Disqus
↑ Back to top | Drive Tabs for Sever. Lyrics for acoustic guitar and electric guitar. 1 Tablatures and chords are parodies/interpretations of the original songs. You may use it for private study, scholarship, research or language learning purposes only