» » »

Drive, Cursed Tabs (ver.1)

Artists:  A B C D E F G H I J K L M N O P Q R S T U V W X Y Z # 

Cursed Tabs (ver.1)

Drive Tabs
 Rating:
4/5 (4 votes)
Cursed lessons Tabs too difficult? Try these video lessons and learn fast
                I TABBED THIS SONG MONTHS AGO BUT NEVER POSTED IT ONLINE
THERE ISNT A DAY I DONT PLAY THIS SONG!!!!
++++++++++++++++++++++++
+++++++++++++++++++++++++
Song : Cursed
+++++++++++++++++++++++++
Tuning : Standard Tuning (EADGBe)

Intro:
       Em  G   F#m Em
 E |---------------|
 B |---------------|
 G |---------------|
 D |----2---5---4-2|
 A |----2---5---4-2|
 E |----0---3---2-0|

Verse:
A broken mind...
       Em  A   G F#m
 E |---------------|
 B |---------------|
 G |--------2------|
 D |----2---2---5-4|
 A |----2---0---5-4|
 E |----0-------3-2|

All left behind...
       Em  G   F#m Em
 E |---------------|
 B |---------------|
 G |---------------|
 D |----2---5---4-2|
 A |----2---5---4-2|
 E |----0---3---2-0|

A turn in kind...
      Em  A   G F#m
 E |---------------|
 B |---------------|
 G |--------2------|
 D |----2---2---5-4|
 A |----2---0---5-4|
 E |----0-------3-2|
A twist to wind

Chorus:
Wanted myself, wanted please help
       B   C   G   F#m
 E |------------------|
 B |------------------|
 G |---4--------------|
 D |---4---2-------4--|
 A |---2---3---2---4--|
 E |-----------3---2--| x2(first time) x4(second time)

Bridge:
Cursed a common girl...
 E |------------------------|
 B |------------------------|
 G |------------------------|
 D |---22222-22222---55544--|  (Palm Muted)
 A |---22222-22222---55544--|
 E |---00000-00000---33322--| 
       ..... .....   ..... 

(Chorus) x6

Outro:

 E |-----------------------|
 B |-----------------------|
 G |-----------------------|
 D |-----4----5------------|
 A |---2----3-----5----4---|
 E |------------3----2-----|   x2

 E |------------------------------------|
 B |------------------------------------|
 G |------------------------------------|
 D |---9999--10101010-------------------|
 A |-------------------10101010--9999---|
 E |------------------------------------|   x6(until the song is over)

THATS IT...ENJOY!!!
THE DRIVE ROCKS!!
-Chris (XgunshyX)
            
Submit corrections

comments powered by Disqus
↑ Back to top | Drive Tabs for Cursed. Lyrics for acoustic guitar and electric guitar. Tablatures and chords are parodies/interpretations of the original songs. You may use it for private study, scholarship, research or language learning purposes only