» » »

D.R.I., Kill The Words Tabs (ver.1)

Artists:  A B C D E F G H I J K L M N O P Q R S T U V W X Y Z # 

Kill The Words Tabs (ver.1)

D.R.I. Tabs
 Rating:
4/5 (4 votes)
Kill The Words lessons Tabs too difficult? Try these video lessons and learn fast
                                             KILL THE WORDS - DRI
-------------------------------------------------------------------------------

Tuning:standard


INTRO
e|---------------------------------------------------------------------------|
B|---------------------------------------------------------------------------|
G|---------------------------------------------------------------------------|
D|---------------------------------------------------------------------------|
A|-7-----7-----7-----8--8--7-----7-----7-------------------------------------|
E|-5-5-5-5-5-5-5-5-5-6--6--5-5-5-5-5-5-5-------------------------------------|
     
e|---------------------------------------------------------------------------|
B|---------------------------------------------------------------------------|
G|---------------------------------------------------------------------------|
D|-------------------------------------------5-------------------------------|
A|-7-----7-----7-----8--8--7-----7-----7-----3--5----------------------------|
E|-5-5-5-5-5-5-5-5-5-6--6--5-5-5-5-5-5-5-5-5----3----------------------------|

e|---------------------------------------------------------------------------|
B|---------------------------------------------------------------------------|
G|---------------------------------------------------------------------------|
D|---------------------------------------------------------------------------|
A|-7-----7-----7-----8--8--7-----7-----7-----5-----4-----3-------------------|
E|-5-5-5-5-5-5-5-5-5-6--6--5-5-5-5-5-5-5-5-5-3-0-0-2-0-0-1-0-0---------------|


e|---------------------------------------------------------------------------|
B|---------------------------------------------------------------------------|
G|-2--------------2--------------2-------------2-----------------------------|
D|-2--------------2--------------2-------------2-----------------------------|
A|-0--------------0--------------0-------------0--[HARMONIC]-----------------|
E|-------0--1--3-----[PICK SLIDE]-----0--1--3------33-44-55------------------|
                                                        
e|---------------------------------------------------------------------------|
B|---------------------------------------------------------------------------|
G|-----2------3------4------5------------------------------------------------|
D|-----2------3------4------5------------------------------------------------|
A|-0-0-0--0-0-1--0-0-2--0-0-3------------------------------------------------|
E|---------------------------------------------------------------------------|

e|---------------------------------------------------------------------------|
B|---------------------------------------------------------------------------|
G|-----2-2--2-2-------2-2-2-22-----------------------------------------------|
D|-----2-2--2-2-------2-2-2-22--X-XX--X-XX-----------------------------------|
A|-0-0-0-0--0-0-3H0---0-0-0-00--3-33--3-33-----------------------------------|
E|-----------------3------------3-33--3-33-----------------------------------|

e|---------------------------------------------------------------------------|
B|---------------------------------------------------------------------------|
G|---------------------------------------------------------------------------|
D|-------6--7--6-7-7-6-7-6------4--5--4-5-5-4-5-4----------------------------|
A|-0-0-7-------------------7--5-------------------5-----3-------5------------|
E|--------------------------------------------------3-5---5-5-7---7----------|

e|-------------|
B|-------------|
G|-------------|
D|-------------|
A|-2-5-6-7-8/--|
E|-0-3-4-5-6/--|

e|---------------------------------------------------------------------------|
B|---------------------------------------------------------------------------|
G|---------------------------------------------------------------------------|
D|-2--------------------2------------2--X-XX--X-XX---------------------------|
A|-2-----------------2--2------------2--3-33--3-33---------------------------|
E|-0-0-0-1-3-0-0-1-3----0-0-0-1-3-0--0--3-33--3-33---------------------------|

e|---------------------------------------------------------------------------|
B|---------------------------------------------------------------------------|
G|-----2------3---------------5----------------------------------------------|
D|-----2------3---------------5----------------------------------------------|
A|-0-0-0--0-0-1-[D-R-U-M]-0-0-3----------------------------------------------|
E|--------------[R-O-L-L]----------------------------------------------------|

MAIN RIFF
e|---------------------------------------------------------------------------|
B|---------------------------------------------------------------------------|
G|---------------------------------------------------------------------------|
D|---------------------------------------------------------------------------|
A|-5-7-5--------4---------7--------6----5-7-5--------4---------7--------6----|
E|-3-5-33333333-222222222-55555555-4444-3-5-33333333-222222222-55555555-4----|

e|---------------------------------------------------------------------------|
B|---------------------------------------------------------------------------|
G|---------------------------------------------------------------------------|
D|---------------------------------------------------------------------------|
A|-4-4-6-5-5--------5-5-44-6-5-----------------------------------------------|
E|-2-2-4-3-33333333-3-3-22-4-33333333----------------------------------------|

CHORUS
e|-----------------------------------------------------------------------------|
B|-----------------------------------------------------------------------------|
G|-----------------------------------------------------------------------------|
D|-----------------------------------------------------------------------------|
A|-5-5-4-4-2-----3-----3-----3-4-5--------4--------3-3-2-----3-----3-----3-4-5-|
E|-3-3-2-2-0-0-0-1-0-0-1-0-0-1-2-33333333-22222222-1-1-0-0-0-1-0-0-1-0-0-1-2-3-|



SLOW DOWN THE TEMPO HERE
e|---------------------------------------------------------------------------|
B|---------------------------------------------------------------------------|
G|---------------------------------------------------------------------------|
D|---------------------------------------------------------------------------|
A|-5-----5-----4-----4-----7-----7-----6-----6-------------------------------|
E|-3-3-3-3-3-3-2-2-2-2-2-2-5-5-5-5-5-5-4-4-4-4-4-4---------------------------|

e|---------------------------------------------------------------------------|
B|-----------------------------------------[HARMONIC]------------------------|
G|----------------------------------------------4----------------------------|
D|---------------------------------------------4-----------------------------|
A|-5-----5-----4-----4-----7-----7-----6------4------------------------------|
E|-3-3-3-3-3-3-2-2-2-2-2-2-5-5-5-5-5-5-4-4-4-4-------------------------------|




e|---------------------------------------------------------------------------|
B|---------------------------------------------------------------------------|
G|---------------------------------------------------------------------------|
D|---------------------------------------------------------------------------|
A|-5/4---7/6---5/4---------5/4---7/6-----------------------------------------|
E|-3/2-0-5/4-0-3/2-1-1-1-1-3/2-0-5/4-1-1-1-1-1-1-----------------------------|

AFTER THAT YOU JUST REPEAT THE MAIN RIFF AND THE CHORUS ONE MORE TIME
            
Submit corrections

comments powered by Disqus
↑ Back to top | D.R.I. Tabs for Kill The Words. Lyrics for acoustic guitar and electric guitar. Tablatures and chords are parodies/interpretations of the original songs. You may use it for private study, scholarship, research or language learning purposes only