» » »

Commuter Man Tabs (ver.2)

Artists:  A B C D E F G H I J K L M N O P Q R S T U V W X Y Z # 

Commuter Man Tabs (ver.2)

D.R.I.
Rating:
0/5 (0 votes)

Hard to play? Try these video lessons and learn fast.
                commuter man


D.R.I.






e:-------------------------------------------------------------7nh-7nh-7nh-7nh-7nh---------|
B:---------------------------------------------------------------------------------7nh-7nh-|
G:-----------------------------------------------------------------------------------------|
D:-----------------------------------------------------------------------------------------|
A:-9--9-9--9--7-7--9--9--9-9-9--7-7--5-5--5-5-5--4-4--5-5--5-5-----------------------------|
E:-7--7-7--7--5-5--7--7--7-7-7--5-5--3-3--3-3-3--2-2--3-3--3-3-----------------------------|

e:-------------------------------------------------------------7nh-7nh-7nh-7nh-7nh---------|
B:---------------------------------------------------------------------------------7nh-7nh-|
G:-----------------------------------------------------------------------------------------|
D:-----------------------------------------------------------------------------------------|
A:-9--9-9--9--7-7--9--9--9-9-9--7-7--5-5--5-5-5--4-4--5-5--5-5-----------------------------|
E:-7--7-7--7--5-5--7--7--7-7-7--5-5--3-3--3-3-3--2-2--3-3--3-3-----------------------------|

e:-----------------------------------------------------------------------------------|
B:-----------------------------------------------------------------------------------|
G:-----------------------------------------------------------------------------------|
D:-----------------------------------------------------------------------------------|
A:-9--9-9--9--7-7--9--9--9-9-9--7-7--5-5--5-5-5--4-4--5-5--5-5/12-12-12-12-12-12-12--|
E:-7--7-7--7--5-5--7--7--7-7-7--5-5--3-3--3-3-3--2-2--3-3--3-3/10-10-10-10-10-10-10--|

e:-----------------------------------------|
B:-----------------------------------------|
G:-----------------------------------------|
D:-----------------------------------------|
A:-9-999-7-7-9999-9-7-7-55-555-44-55-55--7-|
E:-7-777-5-5-7777-7-5-5-33-333-22-33-33--5-|

e:-----------------------------------------|
B:-----------------------------------------|
G:-----------------------------------------|
D:-----------------------------------------|
A:-9-999-7-7-9999-9-7-7-55-555-44-55-55--7-|
E:-7-777-5-5-7777-7-5-5-33-333-22-33-33--5-|

e:-----------------------------------------|
B:-----------------------------------------|
G:-----------------------------------------|
D:-----------------------------------------|
A:-9-999-7-7-9999-9-7-7-55-555-44-55-55--7-|
E:-7-777-5-5-7777-7-5-5-33-333-22-33-33--5-|

e:------------------------|
B:------------------------|
G:------------------------|
D:------------------------|
A:-9-9-7-9-9-7-5-5-4-55-7-|
E:-7-7-5-7-7-5-3-3-2-33-5-|

e:------------------------|
B:------------------------|
G:------------------------|
D:------------------------|
A:-9-9-7-9-9-7-5-5-4-55-7-|
E:-7-7-5-7-7-5-3-3-2-33-5-|

e:------------------------|
B:------------------------|
G:------------------------|
D:------------------------|
A:-9-9-7-9-9-7-5-5-4-55-7-|
E:-7-7-5-7-7-5-3-3-2-33-5-|

e:------------------------|
B:------------------------|
G:------------------------|
D:------------------------|
A:-9-9-7-9-9-7-5-5-4-55-7-|
E:-7-7-5-7-7-5-3-3-2-33-5-|

e:------------------------|
B:------------------------|
G:------------------------|
D:------------------------|
A:-9-9-7-9-9-7-5-5-4-55-7-|
E:-7-7-5-7-7-5-3-3-2-33-5-|

e:------------------------|
B:------------------------|
G:------------------------|
D:------------------------|
A:-9-9-7-9-9-7-5-5-4-55-7-|
E:-7-7-5-7-7-5-3-3-2-33-5-|

e:------------------------|
B:------------------------|
G:------------------------|
D:------------------------|
A:-9-9-7-9-9-7-5-5-4-55-7-|
E:-7-7-5-7-7-5-3-3-2-33-5-|

e:------------------------|
B:------------------------|
G:------------------------|
D:------------------------|
A:-9-9-7-9-9-7-5-5-4-55-7-|
E:-7-7-5-7-7-5-3-3-2-33-5-|

e:------------------------|
B:------------------------|
G:------------------------|
D:------------------------|
A:-9-9-7-9-9-7-5-5-4-55-7-|
E:-7-7-5-7-7-5-3-3-2-33-5-|

e:------------------------|
B:------------------------|
G:------------------------|
D:------------------------|
A:-9-9-7-9-9-7-5-5-4-55-7-|
E:-7-7-5-7-7-5-3-3-2-33-5-|
            
Hard to play? Try these video lessons and learn fast. | Correct




comments powered by Disqus
↑ Back to top | Tablatures and chords are parodies/interpretations of the original songs. You may use it for private study, scholarship, research or language learning purposes only