» » »

D.R.I., Beneath The Wheel Bass tabs (ver.1)

Artists:  A B C D E F G H I J K L M N O P Q R S T U V W X Y Z # 

Beneath The Wheel Bass tabs (ver.1)

D.R.I. Tabs
 Rating:
4/5 (4 votes)
Beneath The Wheel lessons Tabs too difficult? Try these video lessons and learn fast
                -------------------------------------------------------------------------------
-------------------------------------------------------------------------------


This song has fairly simple parts, but there are a lot of them. The bass pretty 
much follows the guitar. 
So if you want to learn it on guitar, for the most part, just use power chords.

Tuning: standard

4/6 = fret 6  string 4

intro a
G|----------------------------------------------------------------|
D|----------------------------------------------------------------| x2
A|----------------------------------------------------------------|
E|--0-0-0-1-0-0-3-0-0-5-0-0-3-0-3-0-3-0-0-0-3/2-0-0-3/2--2/1--1-3-|

intro b                                     
G|---------------------------------------------------------------------|
D|---------------------------------------------------------------------| x1
A|---------------------------------------------------------------------|
E|--0-0-0-1-0-0-3-0-0-3-0-0-3/2-0-2/1--1-1-1-1-1-1-1-1-1-1-1-1-1-1-1-1-|
 
1ntro c
G|---------------------------------------------------------------------|
D|---------------------------------------------------------------------| x1
A|---------------------------------------------------------------------|
E|--0-0-0-1-0-0-3-0-0-3-0-0-3/2-0-2/1--1-1-1-1-1-1-1-1-3/2-0-2/1-2-----|

repeat intro a 2 more times and stop on 0 

"slow riff"
G|-------|-------------------------------------------------------|
D|-------|-------------------------------------------------------| x2
A|-------|-------------------------------------------------------|
E|-1-2-1-|-0--s-0-0--s-0-0--s-0-1-s-1-s-0--s-0-0-s-0-0-s-0-1-----|

verse 
G|--------------------------------------------------------------------------|
D|--------------------------------------------------------------------------|
A|--------------------------------------------------------------------------|
E|-0--0-0-0-0-0-0-0-0-0-0-1-1-0--0-0-0-0-0-0-0-0-0-0--3-3-2--2-2-2--2-2-2---|

G|-----------|------------------------|
D|-----------|------------------------|
A|-----------|------------------------|
E|-2-2-3-3-0-|-0-0-0-0-0-0-1-0-1-0-1--|

G|--------------------------------------------------------------------------|
D|--------------------------------------------------------------------------|
A|--------------------------------------------------------------------------|
E|-0--0-0-0-0-0-0-0-0-0-0-1-1-0--0-0-0-0-0-0-0-0-0-0--3-3-2--2-2-2--2-2-2---|

G|------------|-----------------------------|
D|------------|-----------------------------|
A|------------|-----------------------------|
E|--2-2-3-3-0-|-0-0-0-0-0-0-3/2-0-3/2-0-1-1-|

Chorus (starts with drum fill) 
G|-------------------------------------------------------|
D|-------------------------------------------------------|
A|-0--0-0-0-0-0-0-0-0-0-0--3--3-3-3-3-3-3-3-3-3-3--------|
E|-------------------------------------------------2-----|

Bass Fill- I'm not quite sure of the ending of this but I play it like this
G|--------------3-5b-5b-3---3---|
D|----------3-5-----------5-----|
A|------3-5---------------------|
E|--3-6-------------------------|

G|------------------------------------------------------|
D|------------------------------------------------------|
A|-0--0-0-0-0-0-0-0-0-0-0--3--3-3-3-3-3-3-3-3-3-3-------|
E|------------------------------------------------------|
Follow this pattern with frets 4/6, 3/2, 3/0, 3/3, 4/6
 
then play this

G|-----------------------------------------|
D|-----------------------------------------| x6
A|-2-2-2-2-2-2-2-2-2-2--5-5-5-5--5--1------|
E|-----------------------------------------|

G|-------------------------------------------------------|
D|-------------------------------------------------------|
A|-2-2-2-2-2-2-2-2-2-2--1-1-1-1-1-1-1-1-1-1-1------------|
E|---------------------------------------------1-0-1-0-1-|

G|-----------------------------------------|
D|-----------------------------------------| x4
A|-----------------------------------------|
E|-0--0-0-0-0-0-0-0-0-0-0-1-1--------------|

repeat verse and chorus up to bass fill, and then play this
G|-------------------------------------------------------|
D|-------------------------------------------------------| x2
A|-0--0-0-0-0-0-0-0-0-0-0--3--3-3-3-3-3-3-3-3-3-3--------|
E|-------------------------------------------------2-----|

during solo play this a lot of times
G|------------------------------------------------------------------|
D|------------------------------------------------------------------|
A|-0--0-0-0-0-0-0-0-0-0-0--3--3-3-3-3-3-3-3-3-3-3-------------------|
E|-------------------------------------------------4--44444444444444|

Then play the rest of the chorus following the bass fill

After that play the slow riff

then play verse again

then play chorus up to after the bass fill, and then play this

G|------------------------------------------------|
D|------------------------------------------------|
A|-0--0-0-0-0-0-0-0-0-0-0--3--3-3-3-3-3-3-3-3-3-3-|
E|------------------------------------------------|

G|--------------------------------------------------------------------|
D|--------------------------------------------------------------------| x3
A|--------------------------------------------------------------------|
E|-2--2-2--2-3-2--2-2--2-1-2--2-2--2-3-0--0-0-0-0-0-0-0-0-0-0-0-0-0-0-|

outro
G|---|----------------------------|
D|---|----------------------------| x4
A|---|----------------------------|
E|-1-|-0-0-0-0-0-0-0-0-0-0-1-1-0--|

G|-------------------------------------------------------------------|
D|-------------------------------------------------------------------|
A|-------------------------------------------------------------------|
E|-1-1-0--0-0-0-0-0-0-0-0-0-0--3-3-2--2-2-2--2-2-2--2-2--3-3-0-------|


| s slap string with pick hand
| /  slide up
| \  slide down
| h  hammer-on
| p  pull-off
| ~  vibrato
| +  harmonic
| x  Mute note
===============================================================================
            
Submit corrections

comments powered by Disqus
↑ Back to top | D.R.I. Bass for Beneath The Wheel. Lyrics for acoustic guitar and electric guitar. Tablatures and chords are parodies/interpretations of the original songs. You may use it for private study, scholarship, research or language learning purposes only