>
 >
Get My Rocks Off

Get My Rocks Off Bass Tabs

Dr Hook - Get My Rocks Off chords, tabs, tablatures, lyrics

Guitar lessons | Add/correct | Request | Top 50 tabs Artists:  A B C D E F G H I J K L M N O P Q R S T U V W X Y Z 0-9

Get My Rocks Off Bass Tabs – Dr Hook

CD, Sheet music, Poster

Do you like Get My Rocks Off? Share with your friends now
Bass Tabs
Dr. Hook  Get My Rocks Off

This is the intro riff that starts out the song and repeats itself throughout.

--------------------------|
----------------------6---|
-4-x-47-4----4-x-4-7---2-|
-----------7--------------|

--------------------------|
----------------------6---|
-4-x-47-4----4-x-4-7---2-|
-----------7--------------|


or you could try :
----------------------------|
------------------------4---|
2-x-2--5--2----2-x-2--5---0-|
------------5---------------|

----------------------------|
------------------------4---|
2-x-2--5--2----2-x-2--5---0-|
------------5---------------|





Comments


Popular Dr Hook tabs & chords
Cover Of The Rolling Stone Bass Tabs
Cover Of The Rolling Stone#2 Chords
Everybody's Makin' It Big But Me Chords
Freakin' At The Freaker's Ball Chords
Sylvia's Mother 1 Chords
Up On The Mountain Chords
When Youre In Love 2 Chords
The Wonderful Soupstone Tabs
The Ballad Of Lucy Jordan Ukulele
What A Way To Go Ukulele


Song lyrics



↑ Back to top | Tablatures and chords are parodies/interpretations of the original songs. You may use it for private study, scholarship, research or language learning purposes only
© 2014 AZChords.com Contact us | Privacy policy | DMCA | Add/correct tabs | Request tabs | Top 50 tabs