» » »

Get My Rocks Off Bass tabs (ver.1)

Artists:  A B C D E F G H I J K L M N O P Q R S T U V W X Y Z # 

Get My Rocks Off Bass tabs (ver.1)

Dr Hook
Rating:
0/5 (0 votes)

Hard to play? Try these video lessons and learn fast.
                Dr. Hook – Get My Rocks Off

This is the intro riff that starts out the song and repeats itself throughout.

--------------------------|
----------------------6---|
-4-x-4—7-4----4-x-4-7---2-|
-----------7--------------|

--------------------------|
----------------------6---|
-4-x-4—7-4----4-x-4-7---2-|
-----------7--------------|


or you could try :
----------------------------|
------------------------4---|
2-x-2--5--2----2-x-2--5---0-|
------------5---------------|

----------------------------|
------------------------4---|
2-x-2--5--2----2-x-2--5---0-|
------------5---------------|
            
Hard to play? Try these video lessons and learn fast. | Correct




comments powered by Disqus
↑ Back to top | Tablatures and chords are parodies/interpretations of the original songs. You may use it for private study, scholarship, research or language learning purposes only