>
 >
John Petrucci Guitar

John Petrucci Guitar Guitar Tabs

Dream Theater - John Petrucci Guitar chords, tabs, tablatures, lyrics

Guitar lessons | Add/correct | Request | Top 50 tabs Artists:  A B C D E F G H I J K L M N O P Q R S T U V W X Y Z 0-9

John Petrucci Guitar Guitar Tabs – Dream Theater

CD, Sheet music, Poster

Do you like John Petrucci Guitar? Share with your friends now
Tabs
PROPS GO TO: sam

Jhon Petrucci Guitar solo

as played in Once in a Live Time


.....end of Peruvian Skies

E---------------------------------------------------------------------
B---------------------------------------------------------------------
G-(7*8*9*10*11*)---12*improvis. with a.h-12//-15-12-------------------
D---------------------------------------------------15-12-15-12 ------
A---------------------------------------------------------------15-13-
E---------------------------------------------------------------------

E----------------------------------------lot of a.h......-------------
B---------------------------------------------------------------------
G--------------------------5-7v-7-7-7-7-7-5---7-5---7-5---7-5----7-5--
D----------13------------7------------------7-----7-----7------7-----7
A----13-15----15vv----------------------------------------------------
E-15------------------------------------------------------------------
                                           pm     pm   pm      pm


E--------------------------------------------------------------------
B--------------------------------------------------------------------
G--7v--12-10--9-v-9-7-9-10v--9-7-9--10-00-9-00-9-00-10-0-9-0-7-9-0-10
D--------------------------------------------------------------------
A--------------------------------------------------------------------
E--------------------------------------------------------------------

E--------------------------------------------------------------------
B--------------------------------------------------------------------
G-0-9-0-7-0-9-0-10-0-9-0-10-0-12-0-10-0-12-0-14-0--12-0-14-0-15-0-14-0
D--------------------------------------------------------------------
A--------------------------------------------------------------------
E--------------------------------------------------------------------


E---------------------------------------------------------------------
B---------------------------------------------------------------------
G-15-0-17-17-15-17-15-17-17vv-15-17-15----(repeated)------------------
D--------------------------------------17-----------------------------
A---------------------------------------------------------------------
E---------------------------------------------------------------------


E---------------------------------------------------------------------
B-----------------------------------------------15-16-17-18-19bvvvv---
G--------15-12-------15-12-------12-15-16-17-18-----------------------
D--12-15-------12-15-------12-15--------------------------------------
A---------------------------------------------------------------------
E---------------------------------------------------------------------

E--------------------------------
B--------------------------------
G--------------------------------
D---12v--10----10-12--15-10vvvv--
A---10v--8--12-8--10--13-8vvvvv--
E-----------10-------------------


E-----------------------------------------------------------------------------------
B-----------------------------------------------------------------------------------
G-5b--5-3-3-0-3v------------3-0-0-5-0-3-0-5bv----5b---5ah3-3-0-3ah------------repeat
D----------------0-0-3-3-5------------------------------------------0-0-3-3-5-------
A-----------------------------------------------------------------------------------
E-----------------------------------------------------------------------------------

                 pm.......                                          pm.......


E-----------------------------------------------------------------------------------------
B--------------------------------------T---------T--------T----------improv...........----
G-3-00-3-00--5-00-6-00-5-0-x3 and then 10-0-3-x4-9-0-3-x4-8-0-3-x4--11-11--9-11-9---------
D---------------------------------------------------------------------------------12-10-12
A---------------------------------------------------------------------------------------10
E-----------------------------------------------------------------------------------------


E------------------------------------------------------------
B------------------------------------------------------------
G-3p0-3p0-3p0-3--5--3p0-3p0-3-0-----3p0-3p0-3p0--3-5-6p5-3p0-  Drum Enters
D-------------------------------3p4--------------------------
A------------------------------------------------------------
E------------------------------------------------------------


bridge with  G5.A+5.F and then the part with drum

E------------------------------------------------------
B------------------------------------------------------
G------------------------3-3-5-5-7---------------------
D-3-5//---3-5///--3-5//-------------reapatx3 as u want-
A------------------------------------------------------
E------------------------------------------------------

pm.................................


E-------8-8-10-------10--------------8-8-10-15-13-15-13vv-   repeat x 2
B-8v-11---------8-11----11p8----8-11----------------------
G----------------------------11---------------------------
D---------------------------------------------------------
A---------------------------------------------------------
E---------------------------------------------------------


fast
                  x3
E---------------------------|-------------------------------------------
B-18-17-15-17-x4------------|------------------15----15-17-15-17-18vv---
G------------------17-17-15-|---15-17-18-17-18----18--------------------
D---------------------------|-------------------------------------------
A---------------------------|-------------------------------------------
E---------------------------|-------------------------------------------


E-----------------------------------------------------------------------------------
B-11----11----11----11----11-13-11----11----11----11--------------------------------
G----12----12----12----12----------12----12----12----12-10-11---5p0-5p0-5p0-5p0-5-7-
D-----------------------------------------------------------------------------------
A-----------------------------------------------------------------------------------
E-----------------------------------------------------------------------------------

                                                                few times


then here jhonn continues without drum,I tabbed it but there'are some mistakes.
It's good if at the end of this part with drum u play the TARANTELLA and the FLIGHT OF BUMBLEBEE


TARANTELLA



E-----------------------------|--------------------------|-
B-----------------------------|--------------------------|-
G-4:--9--9--7--7--9--9--7--7--|--9--9--7--7--9--9--7--7--|-
D-4:--------------------------|--------------------------|-
A-----------------------------|--------------------------|-
E-----------------------------|--------------------------|-
       
E--------------------------------|------------------------------|-
B--------------------------------|------------------------------|-
G-4:-11--11--9--9--11--11--9--9--|--11--11--9--9--11--11--9--9--|-
D-4:-----------------------------|------------------------------|-
A--------------------------------|------------------------------|-
E--------------------------------|------------------------------|-
     
E---------------------------------------|-----12--12----------12--12--------|-
B---------------------------------------|-------------12--12----------12----|-
G-5:--12--12--11--11--9--9--9--9--9--9--|-4:--------------------------------|-
D-4:------------------------------------|-4:--------------------------------|-
A---------------------------------------|-----------------------------------|-
E---------------------------------------|-----------------------------------|-
      
E------------------------------------|---------------------------------|-
B-----12--12--13--13--13-15-13-12----|-12-13-12-10--10--10-12-10-8--8--|-
G-4:---------------------------------|---------------------------------|-
D-4:---------------------------------|---------------------------------|-
A------------------------------------|---------------------------------|-
E------------------------------------|---------------------------------|-
       
E----------------------------|
B----8-10-8-7--7--7-8-7-5----|
G-4:-------------------------|
D-4:-------------------------|
A----------------------------|
E----------------------------|
   
E|----------------5---5-7-5-7-|-8-7-5-----------------|-
B|-(5)--5-7-8-7-8---8---------|-------8-7-5-4-5-7-5---|-
G|----------------------------|-----------------------|-
D|----------------------------|-----------------------|-
A|----------------------------|-----------------------|-
E|----------------------------|-----------------------|-
       
E--------------------5---5-7-5-7-|-8-7-5-----------------|-
B-----(5)--5-7-8-7-8---8---------|-------8-7-5-4-5-7-5---|-
G-4:-----------------------------|-----------------------|-
D-4:-----------------------------|-----------------------|-
A--------------------------------|-----------------------|-
E--------------------------------|-----------------------|-
      
E----------------------7--7--10----|--10-12-10-10--8----10-8-8--7--|-
B-----(5)--------8--8--------------|-------------------------------|-
G-4:--------\-7--------------------|-------------------------------|-
D-4:-------------------------------|-------------------------------|-
A----------------------------------|-------------------------------|-
E----------------------------------|-------------------------------|-
        
E-----(7)--------------7--7--10----|--10-12-10-14-12-10--------------|-
B----------------8--8--------------|--------------------13-12-10-----|-
G-4:-------\--7--------------------|-----------------------------12--|-
D-4:-------------------------------|---------------------------------|-
A----------------------------------|---------------------------------|-
E----------------------------------|---------------------------------|-
       
E------------------------7--7--10----|--10-12-10-10--8----10-8-8--7--|-
B-----------------8--10--------------|-------------------------------|-
G-4:--(12)--\--7---------------------|-------------------------------|-
D-4:---------------------------------|-------------------------------|-
A------------------------------------|-------------------------------|-
E------------------------------------|-------------------------------|-
        
E-----(7)---------------7--7--10----|--10-12-10-14-12-10--------------|
B----------------8--10--------------|--------------------13-12-10-----|
G-4:-------\--7---------------------|-----------------------------12--|
D-4:--------------------------------|---------------------------------|
A-----------------------------------|---------------------------------|
E-----------------------------------|---------------------------------|
     



FLIGHT OF THE BUMBLEBEE



E|-12-12-12-12-12-12-12-12-12-12-12-12-12-12-12-12-|-12-11-10-9----------------------------------
B|-------------------------------------------------|------------13-12-11-10----------------------
G|o-----------------------------------------------o|------------------------13-12-11-10----------
D|o-----------------------------------------------o|------------------------------------14-13-12-
A|-------------------------------------------------|---------------------------------------------
E|-------------------------------------------------|---------------------------------------------

E|-------------------------------------------------|---------------------------------------------
B|-------------------------------------------------|---------------------------------------------
G|-------------------------------------------------|---------------------------------------------
D|-14-13-12-11-10-11-12-13-14-13-12-11-15-14-13-12-|-14-13-12-11-------------------------10-11-12
A|-------------------------------------------------|-------------15-14-13-12-11-12-13-14---------E|-------------------------------------------------|---------------------------------------------

E|---------------------------------------------------|-------------------------------------------
B|---------------------------------------------------|-------------------------------------------
G|o-------------------------------------------------o|-------------------------------------------
D|o-14-13-12-11-------14-13-14-13-12-11-15-14-13-12-o|-14-13-12-11-------------------------10-11-
A|--------------16-15--------------------------------|-------------15-14-13-12-11-12-13-14-------
E|---------------------------------------------------|-------------------------------------------

E|-------------------------------------------------|---------------------------------------------
B|-------------------------------------------------|---------------------------------------------
G|-------------------------------------10-11-12-13-|o-14-13-12-11-------14-13-14-13-12-11-15-14-1
D|-14-13-12-11-15-14-13-12-11-12-13-14-------------|o-------------16-15--------------------------
A|-------------------------------------------------|---------------------------------------------
E|-------------------------------------------------|---------------------------------------------

E|---------------------------------------------------|--------------------------------|
B|---------------------------------------------------|--------------------------------|
G|o-14-13-12-11-------------------------10-11-12-13-o|-14~----------------------------|
D|o-------------15-14-13-12-11-12-13-14-------------o|----7-7-7-7-7-7-8-8-8-8-8-8-8-8-|
A|---------------------------------------------------|--------------------------------|
E|---------------------------------------------------|--------------------------------|

E|------------------------------|---------------------------------|------------------------------
B|------------------------------|---------------------------------|------------------------------
G|------------------------------|---------------------------------|--------------------------6-7-
D|-(7)~-7-7-7-7-8-8-8-8-8-8-8-8-|-7-7-7-7-8-8-8-8-7-7-7-7-8-8-8-8-|-7-8-7-6-7-8-7-6-7-8-9-10-----
A|------------------------------|---------------------------------|------------------------------
E|------------------------------|---------------------------------|------------------------------

E|---------------------------------|---------------------------------|---------------------------
B|---------------------------------|---------------------------------|---------------------------
G|-7-7-7-7-7-7-7-7-8-8-8-8-8-8-8-8-|-7-7-7-7-7-7-7-7-8-7-8-7-8-7-8-7-|-7-7-7-7-8-8-8-8-7-7-7-7-8-
D|---------------------------------|---------------------------------|---------------------------
A|---------------------------------|---------------------------------|---------------------------
E|---------------------------------|---------------------------------|---------------------------
E|-------------------6-7-8-9-10-9-8-7-|-10-9-8-7-------10-9-10-9-8-7-11-10-9-8-|
B|----------7-8-9-10------------------|----------11-10-------------------------|
G|-7-8-9-10---------------------------|o--------------------------------------o|
D|------------------------------------|o--------------------------------------o|
A|------------------------------------|----------------------------------------|
E|------------------------------------|----------------------------------------|

E|-10-9-8-7--------------------8-9-10-11-|-12-11-10-9----------------------------------|
B|----------11-10-9-8-7-8-9-10-----------|------------13-12-11-10----------------------|
G|---------------------------------------|------------------------13-12-11-10-9-10-9-8-|
D|---------------------------------------|---------------------------------------------|
A|---------------------------------------|---------------------------------------------|
E|---------------------------------------|---------------------------------------------|


E|--------------------------------------------------------------------|
B|--------------------------------------------------------------------|
G|-x\-----------8^(9)^8^(9)^8^(9)^8^(9)^8^(9)^8^(9)^8^(9)~~~-x\-------|
D|-x\\---2~--------------------------------------------------x\\---2~-|
A|---\\--2~----------------------------------------------------\\--2~-|
E|----\\-0~-----------------------------------------------------\\-0~-|





Comments


Popular Dream Theater tabs & chords
Caught In A Web Bass Tabs
Forsaken Bass Tabs
Pull Me Under Bass Tabs
Scarred 3 Bass Tabs
Answer Lies Within Chords
Constant Motion 3 Tabs
Fatal Tragedy Tabs
John And Theresa (Solo) Tabs
Never Enough Intro Tabs
Peruvian Skies Tabs


Song lyrics



↑ Back to top | Tablatures and chords are parodies/interpretations of the original songs. You may use it for private study, scholarship, research or language learning purposes only
© 2014 AZChords.com Contact us | Privacy policy | DMCA | Add/correct tabs | Request tabs | Top 50 tabs