>
 >
Finally Free

Finally Free Guitar Tabs

Dream Theater - Finally Free chords, tabs, tablatures, lyrics

Guitar lessons | Add/correct | Request | Top 50 tabs Artists:  A B C D E F G H I J K L M N O P Q R S T U V W X Y Z 0-9

Finally Free Guitar Tabs – Dream Theater

CD, Sheet music, Poster

Do you like Finally Free? Share with your friends now
Bass TabsTabsTabs v2
Scene Nine: Finally Free


 
     D                         D/F#
     Gtr.1(Acous.Gtr.)
                                           __3__
E||--------------2-----------|-------------0^2^0----------|
B||--------3-----------3-----|----------3--------3--------|
G||4----2-----2-----------2--|-------2--------------2-----|
D||4-0--------------0--------|----0--------------------0--|
A||--------------------------|----------------------------|
E||--------------------------|-2--------------------------|
  |  Gtr.2(Elec.Gtr.)
  |                                        __3__
E||--------------2-----------|-------------0^2^0----------|
B||--------3-----------3-----|----------3--------3--------|
G||4----2-----2-----------2--|-------2--------------2-----|
D||4-0--------------0--------|----0--------------------0--|
A||--------------------------|----------------------------|
E||--------------------------|-2--------------------------|
 
 
 
 
   G                          D             D/C#
   Gtr.1
E|-------------3------------|-------------0-------------|
B|----------3---------------|----3------3------3--------|
G|-------0---------------0--|-------0^2-----------2-----|
D|----0---------------------|-0----------------------4--|
A|-------------------0^2----|---------------4-----------|
E|-3--------------3---------|---------------------------|
 | Gtr.2
E|-------------3------------|-------------0-------------|
B|----------3---------------|----3------3------3--------|
G|-------0---------------0--|-------0^2-----------2-----|
D|----0---------------------|-0----------------------4--|
A|-------------------0^2----|---------------4-----------|
E|-3--------------3---------|---------------------------|
 
 
 
 
   Bm                        Bm/A
   Gtr.1
E|-------------2-----------|-------------2-----------|
B|----------3--------3-----|----------3--------3-----|
G|-------4--------------4--|-------4--------------4--|
D|----4--------------------|----4--------------------|
A|-2--------------2--------|-0--------------0--------|
E|-------------------------|-------------------------|
 | Gtr.2
E|-------------2-----------|-------------2-----------|
B|----------3--------3-----|----------3--------3-----|
G|-------4--------------4--|-------4--------------4--|
D|----4--------------------|----4--------------------|
A|-2--------------2--------|-0--------------0--------|
E|-------------------------|-------------------------|
 
 
 
 
   E7/G#                     A
   Gtr.1
E|-------------0-----------|--------------------0-----|
B|----------3--------3-----|----------2--3---------2--|
G|-------4--------------4--|-------2--------0^2-------|
D|----2--------------------|----2---------------------|
A|-------------------------|-0------------------------|
E|-4--------------4--------|--------------------------|
 | Gtr.2
E|-------------0-----------|--------------------0-----|
B|----------3--------3-----|----------2--3---------2--|
G|-------4--------------4--|-------2--------0^2-------|
D|----2--------------------|----2---------------------|
A|-------------------------|-0------------------------|
E|-4--------------4--------|--------------------------|
 
 
 
 
   D                         D/F#
   Gtr.1
                                         __3__
E|-------------2-----------|-------------0^2^0----------|
B|-------3-----------3-----|----------3--------3--------|
G|----2-----2-----------2--|-------2--------------2-----|
D|-0--------------0--------|----0--------------------0--|
A|-------------------------|----------------------------|
E|-------------------------|-2--------------------------|
 | Gtr.2
 |                                        __3__
E|-------------2-----------|-------------0^2^0----------|
B|-------3-----------3-----|----------3--------3--------|
G|----2-----2-----------2--|-------2--------------2-----|
D|-0--------------0--------|----0--------------------0--|
A|-------------------------|----------------------------|
E|-------------------------|-2--------------------------|
 
 
 
 
   G                            Em
   Gtr.1
E|----------------------------|-------------0-----------|
B|-------------0--------------|----------------0--------|
G|-------0—0^2----2--0^2^0----|-0--------0--------0-----|
D|----0--------------------4--|-------2--------------2--|
A|----------------------------|----2--------------------|
E|-3--------------------------|-0-----------------------|
 | Gtr.2
E|----------------------------|-------------0-----------|
B|-------------0--------------|----------------0--------|
G|-------0—0^2----2--0^2^0----|-0--------0--------0-----|
D|----0--------------------4--|-------2--------------2--|
A|----------------------------|----2--------------------|
E|-3--------------------------|-0-----------------------|
 
 
 
 
   A/C#                      A
   Gtr.1
E|-------------------------|--------------0-----------|
B|-------------2-----------|----------2^3----3--2--0--|
G|-------2-----------2-----|-------2------------------|
D|----2-----2-----------2--|----2---------------------|
A|-4--------------4--------|-0------------------------|
E|-------------------------|--------------------------|
 | Gtr.2
E|-------------------------|--------------0-----------|
B|-------------2-----------|----------2^3----3--2--0--|
G|-------2-----------2-----|-------2------------------|
D|----2-----2-----------2--|----2---------------------|
A|-4--------------4--------|-0------------------------|
E|-------------------------|--------------------------|
 
 
 
 
   F#                        Bm          G#m7  C#7     Gdim7       Edim7 D#7
   Gtr.1
E|-------------2-----------|-------------------------|-------------------------3-|
B|-------------------2-----|-3-----------------------|-2--------2--2---------2---|
G|-3--------------------3--|----4--------4--------4--|----3-----------3----3-----|
D|----4-----4--------------|-------4--------4--3-----|-------2-----------1-------|
A|-------4-----------------|-2--------0--------------|---------------------------|
E|-2--------------2--------|-------------4-----------|-3-----------0-------------|
 | Gtr.2
E|-------------2-----------|-------------------------|-------------------------3-|
B|-------------------2-----|-3-----------------------|-2--------2--2---------2---|
G|-3--------------------3--|----4--------4--------4--|----3-----------3----3-----|
D|----4-----4--------------|-------4--------4--3-----|-------2-----------1-------|
A|-------4-----------------|-2--------0--------------|---------------------------|
E|-2--------------2--------|-------------4-----------|-3-----------0-------------|
 
 
 
 
   G#m(9)
   Gtr.1
E|-------------------------|-------------------------|
B|-------0-----4-----0-----|-------0-----4-----0-----|
G|----3-----3-----3-----3--|----3-----3-----3-----3--|
D|-------------------------|-------------------------|
A|-------------------------|-------------------------|
E|-4-----------------------|-4-----------------------|
 | Gtr.2
E|-------------------------|-------------------------|
B|-------0-----4-----0-----|-------0-----4-----0-----|
G|----3-----3-----3-----3--|----3-----3-----3-----3--|
D|-------------------------|-------------------------|
A|-------------------------|-------------------------|
E|-4-----------------------|-4-----------------------|
 
 
 
 
 
   Gtr.1
E|-------------------------|-------------------------|
B|-------0-----4-----0-----|-------0-----4-----0-----|
G|----3-----3-----3-----3--|----3-----3-----3-----3--|
D|-------------------------|-------------------------|
A|-------------------------|-------------------------|
E|-4-----------------------|-4-----------------------|
 | Gtr.2
E|-------------------------|-------------------------|
B|-------0-----4-----0-----|-------0-----4-----0-----|
G|----3-----3-----3-----3--|----3-----3-----3-----3--|
D|-------------------------|-------------------------|
A|-------------------------|-------------------------|
E|-4-----------------------|-4-----------------------|
 
 
 
 
   G#m                C#m6/A#  G#m E    C#m     G#m
   Gtr.1
E|------------------|--------|--------|--------|--------|
B|------------------|--------|--------|--------|--------|
G|------------------|--------|--------|--------|--------|
D|------------------|--------|--------|--------|--------|
A|------------------|--------|--------|--------|--------|
E|-4----------------|--------|--------|--------|--------|
 | Gtr.2
E|------------------|--------|--------|--------|--------|
B|------------------|--------|--------|--------|--------|
G|------------------|--------|--------|--------|--------|
D|------------------|--------|--------|--------|--------|
A|------------------|--------|--------|--------|--------|
E|-4----------------|--------|--------|--------|--------|
 
 
 
 
   C#m6/A#         G#m     G#m/F#    E      B/D#      C#m
   Gtr.1
E|----------------|----------------|----------------|----------------|
B|----------------|----------------|----------------|----------------|
G|----------------|----------------|----------------|----------------|
D|----------------|----------------|----------------|----------------|
A|----------------|----------------|----------------|----------------|
E|----------------|----------------|----------------|----------------|
 
 
 
 
    G#m/D#   E      G#m/D#   E     G#m/D#   E      G#m/D#   E      
    Gtr.1
E|----------------|--------------|--------------|-----------------|
B|----------------|--------------|--------------|-----------------|
G|7---------------|--------------|--------------|4----------------|
D|8---------------|--------------|--------------|4----------------|
A|----------------|--------------|--------------|-----------------|
E|----------------|--------------|--------------|-----------------|
 
 
 
 
   G#m                              C#m
   Gtr.1
E|--------------------------------|--------------------------------|
B|--------------------------------|--------------------------------|
G|--------------------------------|--------------------------------|
D|--------------------------------|--------------------------------|
A|--------------------------------|--------------------------------|
E|--------------------------------|--------------------------------|
      Fri-day eve-ning,  the blood_  still on_ my hands._        To
 
 
 
   G#m             E                C#m
   Gtr.1
E|--------------------------------|--------------------------------|
B|--------------------------------|--------------------------------|
G|--------------------------------|--------------------------------|
D|--------------------------------|--------------------------------|
A|--------------------------------|--------------------------------|
E|--------------------------------|--------------------------------|
  think that she_ would_ leave me now_ for that un-grate-ful man._
 
 
 
 
   G#m                              C#m
   Gtr.1
E|--------------------------------|--------------------------------|
B|--------------------------------|--------------------------------|
G|--------------------------------|--------------------------------|
D|--------------------------------|--------------------------------|
A|--------------------------------|--------------------------------|
E|--------------------------------|--------------------------------|
     Sole sur – vi - vor,  no wit - ness to__ the crime.__       I
 
 
 
   G#m             G#m/F#           E
   Gtr.1
E|--------------------------------|--------------------------------|
B|--------------------------------|--------------------------------|
G|--------------------------------|--------------------------------|
D|--------------------------------|--------------------------------|
A|--------------------------------|--------------------------------|
E|--------------------------------|--------------------------------|
  must act fast to co-ver up,__  I think that there's_ still time._
    
 
 
   C#m                    B             F#
   Gtr.1
         ~~~                      __3__ ~~~~~~~~~
E|----------------------|------------------------|
B|-------4---5---7--/9--|-4---5---4^5^4----------|
G|--/6------------------|---------------6--------|
D|----------------------|------------------------|
A|----------------------|------------------------|
E|----------------------|------------------------|
 | Gtr.2
 |       ~~~                      __3__ ~~~~~~~~~
E|----------------------|------------------------|
B|-------4---5---7--/9--|-4---5---4^5^4----------|
G|--/6------------------|---------------6--------|
D|----------------------|------------------------|
A|----------------------|------------------------|
E|----------------------|------------------------|
   He'd seem_ hope-less_ and lost with this_ note
 
 
 
   C#m                      B6              F#/A#     F#
   Gtr.1
         ~~~                     
E|----------------------|----------------|-----------------------|
B|-------4---5---7--/9--|--12-------11^9-|-----------------------|
G|--/6------------------|2---------------|4-11-------/6---4---3--|
D|----------------------|4---------------|4----------------------|
A|----------------------|----------------|-----------------------|
E|----------------------|----------------|-----------------------|
 | Gtr.2
 |       ~~~                     
E|----------------------|----------------|-----------------------|
B|-------4---5---7--/9--|--12-------11^9-|-----------------------|
G|--/6------------------|2---------------|4-11-------/6---4---3--|
D|----------------------|4---------------|4----------------------|
A|----------------------|----------------|-----------------------|
E|----------------------|----------------|-----------------------|
    They'll_ buy in-to_ the words that_ I  wrote.__
 
 
 
   G#m                       Eb/G        D#
   Gtr.1
E|-4---4-4--4---4-4--4--4--|------------------------|
B|-4---4-4--4---4-4--4--4--|-4---4-4--x--8----8--x--|
G|-4---4-4--4---4-4--4--4--|-3---3-3--x--8----8--x--|
D|-6---6-6--6---6-6--6--6--|-1---1-1--x--8----8--x--|
A|-6---6-6--6---6-6--6--6--|-------------6----6--x--|
E|-4---4-4--4---4-4--4--4--|-3---3-3--x-------------|
 | Gtr.2
E|-------------------------|------------------------|
B|-------------------------|------------------------|
G|-------------------------|------------------------|
D|-6-----------------------|------------------------|
A|-------------------------|------------------------|
E|-------------------------|------------------------|
           "This feel - ing           in – side_ me,
 
 
 
   E5           C#m7           B/D#         F#
   Gtr.1
E|-0---0-0-0-x--0---0-0--x-x-|--------------2---2-2--x--|
B|-0---0-0-0-x--0---0-0--x-x-|-4---4-4-4----2---2-2--x--|
G|-9---9-9-9-x--6---6-6--x-x-|-4---4-4-4----3---3-3--x--|
D|-9---9-9-9-x--6---6-6--x-x-|-4---4-4-4----4---4-4--x--|
A|-7---7-7-7-x--4---4-4--x-x-|-6---6-6-6----4---4-4--x--|    
E|-0---0-0-0-x---------------|-----------0--2---2-2--x--|
  fi-nally found my love, I've fi-nally broke_ free.
 
 
 
   G#m                       Eb/G        D#
   Gtr.1
E|-4---4-4--4---4-4--4--4--|------------------------|
B|-4---4-4--4---4-4--4--4--|-4---4-4--x--8----8--x--|
G|-4---4-4--4---4-4--4--4--|-3---3-3--x--8----8--x--|
D|-6---6-6--6---6-6--6--6--|-1---1-1--x--8----8--x--|
A|-6---6-6--6---6-6--6--6--|-------------6----6--x--|
E|-4---4-4--4---4-4--4--4--|-3---3-3--x-------------|
            No lon - ger              torn in two,
 
 
 
   E5           C#m7           B/D#         D#m
   Gtr.1
E|-0---0-0-0-x--0---0-0--x-x-|--------------6---6-6--6--|
B|-0---0-0-0-x--0---0-0--x-x-|-4---4-4-4-4--7---7-7--7--|
G|-9---9-9-9-x--6---6-6--x-x-|-4---4-4-4-4--8---8-8--8--|
D|-9---9-9-9-x--6---6-6--x-x-|-4---4-4-4-4--8---8-8--8--|
A|-7---7-7-7-x--4---4-4--x-x-|-6---6-6-6-6--6---6-6--6--|    
E|-0---0-0-0-x---------------|--------------------------|
   I'd take my own life be - fore lo - sing you."
 
 
 
    G#m             G#m/D#   E      G#m/D#   E      G#m     E  
    Gtr.1
E|--4--------------|--------------|--------------|-----------------|
B|--4--------------|--------------|--------------|-----------------|
G|7-4--------------|--------------|--------------|4----------------|
D|8-6--------------|--------------|--------------|4----------------|
A|--6--------------|--------------|--------------|-----------------|
E|--4--------------|--------------|--------------|-----------------|
 
 
 
 
   G#m                      D#
   Gtr.3(Elec.Gtr. w/dist.)
             ~~~~~~~~                ~~~~~~     ~~
E|------------------------|--------------------------|
B|------------------------|--------------------------|
G|-6/8--8--x-8------------|--------------------------|
D|-4/6--6--x-6------------|-----8----8------8--------|
A|--------------------4^5-|-6---6--6-6------6-4^6--6-|
E|------------------------|--------------------------|
       Feel-ing good this Fri-day af-ter-noon,_
 
 
 
   E        C#m7                 B/F#          F#
   Gtr.3
            ~~~~    ___3__
E|-----------------------------|----------------------2-----|
B|-----9---------9-------------|-----4-------------------2--|
G|-----9--x------9-------------|-----4----------------------|
D|-----9--x------9--9^11^9-----|-----4^^6^4---------4-------|
A|-------------------------11-\|\6----------6\----4---------|
E|-0--------9------------------|---------------2------------|
  I ran in-to Ju-li-an,  said we'd_ get to-geth-er soon.__
 
 
 
   G#m                      D#
   Gtr.3
             ~~~~~~~~                ~~~~~~     ~~
E|------------------------|--------------------------|
B|------------------------|--------------------------|
G|-6/8--8--x-8------------|--------------------------|
D|-4/6--6--x-6------------|-----8----8------8--------|
A|--------------------4^5-|-6---6--6-6------6-4^6--6-|
E|------------------------|--------------------------|
  He's al-ways had_ my heart,he needs to know_   I'll
 
 
 
   E        C#m7                 B/F#          D#m
   Gtr.3
            ~~~~    ___3__
E|-----------------------------|------------------------|
B|-----9---------9-------------|-----4------------------|
G|-----9--x------9-------------|-----4---------------8--|
D|-----9--x------9--9^11^9-----|-----4^^6^4-------8-----|
A|-------------------------11-\|\6----------6\-6--------|
E|-0--------9------------------|------------------------|
  break free of the Mir-a-cle,it's time for him_ to go._
 
 
 
   G#m                       Eb/G        D#
   Gtr.1
E|-4---4-4--4---4-4--4--4--|------------------------|
B|-4---4-4--4---4-4--4--4--|-4---4-4--x--8----8--x--|
G|-4---4-4--4---4-4--4--4--|-3---3-3--x--8----8--x--|
D|-6---6-6--6---6-6--6--6--|-1---1-1--x--8----8--x--|
A|-6---6-6--6---6-6--6--6--|-------------6----6--x--|
E|-4---4-4--4---4-4--4--4--|-3---3-3--x-------------|
 | Gtr.4(Elec.Gtr.)
E|-------------------------|------------------------|
B|12------------------/12--|11------------------11--|
G|----\8-------------------|----\8------------------|
D|-------------------------|------------------------|
A|-------------------------|------------------------|
E|-------------------------|------------------------|
 | Gtr.5(Elec.Gtr.)
E|-------------------------|------------------------|
B|-------------------------|------------------------|
G|-------------------------|------------------------|
D|/9-------------------/9--|-8-------------------8--|
A|----\6-------------------|----\6------------------|
E|-------------------------|------------------------|
          This feel-ing            in-side_ me,
 
 
 
   E5           C#m            B/D#         F#
   Gtr.1
E|-0---0-0-0-x--0---0-0--x-x-|--------------2---2-2--x--|
B|-0---0-0-0-x--0---0-0--x-x-|-4---4-4-4----2---2-2--x--|
G|-9---9-9-9-x--6---6-6--x-x-|-4---4-4-4----3---3-3--x--|
D|-9---9-9-9-x--6---6-6--x-x-|-4---4-4-4----4---4-4--x--|
A|-7---7-7-7-x--4---4-4--x-x-|-6---6-6-6----4---4-4--x--|    
E|-0---0-0-0-x---------------|-----------0--2---2-2--x--|
 | Gtr.4
E|---------------------------|--------------------------|
B|-9--------------------/9---|-7-------------------9^11-|
G|----\4--/--8--6------------|----\8--\--4--6-----------|
D|---------------------------|--------------------------|
A|---------------------------|--------------------------|
E|---------------------------|--------------------------|
 | Gtr.5
E|---------------------------|--------------------------|
B|---------------------------|--------------------------|
G|---------------------------|--------------------------|
D|-6--------------------/6---|-4--------------------6^8-|
A|----\2--/--6--4------------|----\6--\--2--4-----------|
E|---------------------------|--------------------------|
  Fi-nally found my love, I've fi-nally broke_ free.
 
 
 
   G#m                       Eb/G        D#
   Gtr.1
E|-4---4-4--4---4-4--4--4--|------------------------|
B|-4---4-4--4---4-4--4--4--|-4---4-4--x--8----8--x--|
G|-4---4-4--4---4-4--4--4--|-3---3-3--x--8----8--x--|
D|-6---6-6--6---6-6--6--6--|-1---1-1--x--8----8--x--|
A|-6---6-6--6---6-6--6--6--|-------------6----6--x--|
E|-4---4-4--4---4-4--4--4--|-3---3-3--x-------------|
 | Gtr.4
E|-------------------------|------------------------|
B|11-------------------11--|-9------------------/9--|
G|----\8-------------------|----\4--/-8--6----------|
D|-------------------------|------------------------|
A|-------------------------|------------------------|
E|-------------------------|------------------------|
 | Gtr.5
E|-------------------------|------------------------|
B|-------------------------|------------------------|
G|-------------------------|------------------------|
D|-8--------------------8--|-6------------------/6--|
A|----\6-------------------|----\2--/-6--4----------|
E|-------------------------|------------------------|
           No long - er               torn in two,
 
 
 
   E5           C#m7           B/D#         D#m
   Gtr.1
E|-0---0-0-0-x--0---0-0--x-x-|--------------6---6-6--6--|
B|-0---0-0-0-x--0---0-0--x-x-|-4---4-4-4-4--7---7-7--7--|
G|-9---9-9-9-x--6---6-6--x-x-|-4---4-4-4-4--8---8-8--8--|
D|-9---9-9-9-x--6---6-6--x-x-|-4---4-4-4-4--8---8-8--8--|
A|-7---7-7-7-x--4---4-4--x-x-|-6---6-6-6-6--6---6-6--6--|    
E|-0---0-0-0-x---------------|--------------------------|
 | Gtr.4
E|---------------------------|--------------------------|
B|-7--------------------9^11-|-7------------------8-----|
G|-----8--\--4--6------------|-----8--\--4--3-----------|
D|---------------------------|--------------------------|
A|---------------------------|--------------------------|
E|---------------------------|--------------------------|
 | Gtr.5
E|---------------------------|--------------------------|
B|---------------------------|--------------------------|
G|---------------------------|--------------------------|
D|-4---------------------6^8-|-4------------------6-----|
A|-----6--\--2--4------------|-----6--\--2--1-----------|
E|---------------------------|--------------------------|
   he'd kill his broth-er if   he  on - ly  knew
 
 
 
    B/F#                          E
    Gtr.4
                                           _____3_____
                                                    1/2
E|------------------------------|------------------------|
B|----------------12---11^12^11-|----------9---11---11b--|
G|/11-------/11-----------------|13----------------------|
D|------------------------------|------------------------|
A|------------------------------|------------------------|
E|------------------------------|------------------------|
 | Gtr.5
E|------------------------------|------------------------|
B|------------------------------|------------------------|
G|------------------------------|------------------------|
D|------------------------------|------------------------|
A|-/9---------------------------|-7----------------------|
E|------------------------------|------------------------|
 | Gtr.6(Elec.Gtr.)
 |                                         ~~~~~~~~~~~~~~
E|------------------------------|------------------------|
B|------------------------------|------------------------|
G|-/8---------------------------|-8--------6-------------|
D|------------------------------|------------------------|
A|------------------------------|------------------------|
E|------------------------------|------------------------|
           Their love_ re – newed,     they'd ren – dez -
  (Ah.____________________________________)
 
 
 
    B(9)/D# B/D#         G#m
    Gtr.4
   ~~~~~~~~~~~~                     ~~~~~
E|---------------------|-4----------------------|
B|---------------------|----4-4-------------4^5-|
G|11--------------8^11-|---------6--4-----------|
D|---------------------|------------------------|
A|---------------------|------------------------|
E|---------------------|------------------------|
 | Gtr.5
E|---------------------|------------------------|
B|---------------------|------------------------|
G|---------------------|------------------------|
D|---------------------|------------------------|
A|-6-------------------|------------------------|
E|---------------------|-4----------------------|
 | Gtr.6
 |tr~~~~~   ~~~~~~~~~~~               ~~~~~~~~~~
E|---------------------|------------------------|
B|---------------------|------------------------|
G|6(8)----6\4----------|-4------3-----1---------|
D|---------------------|------------------------|
A|---------------------|------------------------|
E|---------------------|------------------------|
  - vous,          in a path-way out_ of view._
  (Ah.____)
 
 
 
    B/F#                                 E
    Gtr.4
                     ___3___  ___3___             _____3_____
E|---------------------------11^12^14-|/16-------/16---18---19---|
B|/7-------------12-11^12^14----------|--------------------------|
G|---------/11------------------------|--------------------------|
D|------------------------------------|--------------------------|
A|------------------------------------|--------------------------|
E|------------------------------------|--------------------------|
 | Gtr.5
E|------------------------------------|--------------------------|
B|------------------------------------|--------------------------|
G|------------------------------------|--------------------------|
D|------------------------------------|--------------------------|
A|------------------------------------|/7------------------------|
E|-2----------------------------------|--------------------------|
 | Gtr.6
 |                                                 ~~~~~~~~~~~~~~
E|------------------------------------|--------------------------|
B|------------------------------------|--------------------------|
G|-/8---------------------------------|-8----------6-------------|
D|------------------------------------|--------------------------|
A|------------------------------------|--------------------------|
E|------------------------------------|--------------------------|
            They thought no__ one      knew,       then came a
  (Ah.______________________________________)
 
 
 
    B(9)/D#   B/D#       D#m       D#/FX
    Gtr.4
   ~~~~~~~~~~~~                     ~~~~~
E|19b-----r--19--------|18--------16b-----r--|
B|---------------------|---------------------|
G|---------------------|---------------------|
D|---------------------|---------------------|
A|---------------------|---------------------|
E|---------------------|---------------------|
 | Gtr.5
E|---------------------|---------------------|
B|---------------------|---------------------|
G|---------------------|---------------------|
D|---------------------|-8-------------------|
A|-6-------------------|-6-------------------|
E|---------------------|-----------3---------|
 | Gtr.6
 |tr~~~~~   
E|---------------------|---------------------|
B|---------------------|---------------------|
G|6(8)------6\4--------|-3---------3---------|
D|---------------------|---------------------|
A|---------------------|---------------------|
E|---------------------|---------------------|
   shot     out          of        the______
  (Ah.____)
 
 
 
   G#m                F#m                C#m                A
   Gtr.4
E|16----------------|(16)--------------|------------------|------------------|
B|------------------|------------------|------------------|------------------|
G|------------------|------------------|------------------|------------------|
D|------------------|------------------|------------------|------------------|
A|------------------|------------------|------------------|------------------|
E|------------------|------------------|------------------|------------------|
 | Gtr.5
E|------------------|------------------|------------------|------------------|
B|------------------|------------------|------------------|------------------|
G|------------------|------------------|-6----------------|-2----------------|
D|------------------|------------------|-6----------------|-2----------------|
A|-6----------------|-4----------------|-4----------------|-0----------------|
E|-4----------------|-2----------------|-4----------------|------------------|
 | Gtr.6
E|------------------|------------------|------------------|------------------|
B|------------------|------------------|------------------|------------------|
G|-1----------------|(1)---------------|------------------|------------------|
D|------------------|------------------|------------------|------------------|
A|------------------|------------------|------------------|------------------|
E|------------------|------------------|------------------|------------------|
   night._____
 
 
 
   G#m                     F#m
   Gtr.5
E|-----------------------|-----------------------|
B|-----------------------|-----------------------|
G|-----------------------|-----------------------|
D|-----------------------|-----------------------|
A|-6---------------------|-4---------------------|
E|-4---------------------|-2---------------------|
 | Gtr.6
 |         ~~~~                    ~~~~
E|-----------------------|-----------------------|
B|-----------------------|-----------------------|
G|-----------------------|-----------------------|
D|-----------------------|-----------------------|
A|-----/7--6-------7--6--|-----/7--6-------7--6--|
E|-4------------4--------|-2------------2--------|
 
 
 
 
   C#m                     A
   Gtr.5
E|-----------------------|-----------------------|
B|-----------------------|-----------------------|
G|-6---------------------|-2---------------------|
D|-6---------------------|-2---------------------|
A|-4---------------------|-0---------------------|
E|-4---------------------|-----------------------|
 | Gtr.6
 |         ~~~~                    ~~~~
E|-----------------------|-----------------------|
B|-----------------------|-----------------------|
G|-----------------------|-----------------------|
D|-----------------------|-----------------------|
A|-4---/7--6----4--7--6--|-0---/7--6----0--7--6--|
E|-----------------------|-----------------------|
 
 
 
 
   G#m                     F#m
   Gtr.4
           ~~~~                    ~~~~
E|-----------------------|-----------------------|
B|-----------------------|-----------------------|
G|-----/9--8-------9--8--|-----/9--8-------9--8--|
D|-6------------6--------|-4------------4--------|
A|-----------------------|-----------------------|
E|-----------------------|-----------------------|
 | Gtr.5
E|-----------------------|-----------------------|
B|-----------------------|-----------------------|
G|-----------------------|-----------------------|
D|-----------------------|-----------------------|
A|-6---------------------|-4---------------------|
E|-4---------------------|-2---------------------|
 | Gtr.6
 |         ~~~~                    ~~~~
E|-----------------------|-----------------------|
B|-----------------------|-----------------------|
G|-----------------------|-----------------------|
D|-----------------------|-----------------------|
A|-----/7--6-------7--6--|-----/7--6-------7--6--|
E|-4------------4--------|-2------------2--------|
 
 
 
 
   C#m                     A
   Gtr.4
           ~~~~                    ~~~~
E|-----------------------|-----------------------|
B|-----------------------|-----------------------|
G|-6---/9--8----6--9--8--|-----/9--8-------9--8--|
D|-----------------------|-7------------7--------|
A|-----------------------|-----------------------|
E|-----------------------|-----------------------|
 | Gtr.5
E|-----------------------|-----------------------|
B|-----------------------|-----------------------|
G|-6---------------------|-2---------------------|
D|-6---------------------|-2---------------------|
A|-4---------------------|-0---------------------|
E|-4---------------------|-----------------------|
 | Gtr.6
 |         ~~~~                    ~~~~
E|-----------------------|-----------------------|
B|-----------------------|-----------------------|
G|-----------------------|-----------------------|
D|-----------------------|-----------------------|
A|-4---/7--6----4--7--6--|-0---/7--6----0--7--6--|
E|-----------------------|-----------------------|
 
 
 
 
   G#m                     F#m
   Gtr.4
           ~~~~                    ~~~~
E|-----------------------|-----------------------|
B|-----------------------|-----------------------|
G|-----/9--8-------9--8--|-----/9--8-------9--8--|
D|-6------------6--------|-4------------4--------|
A|-----------------------|-----------------------|
E|-----------------------|-----------------------|
 | Gtr.5
E|-----------------------|-----------------------|
B|-----------------------|-----------------------|
G|-----------------------|-----------------------|
D|-----------------------|-----------------------|
A|-6---------------------|-4---------------------|
E|-4---------------------|-2---------------------|
 | Gtr.6
 |         ~~~~                    ~~~~
E|-----------------------|-----------------------|
B|-----------------------|-----------------------|
G|-----------------------|-----------------------|
D|-----------------------|-----------------------|
A|-----/7--6-------7--6--|-----/7--6-------7--6--|
E|-4------------4--------|-2------------2--------|
 | Gtr.7
 |         ~~~~                    ~~~~
E|-----------------------|-----------------------|
B|-----------------------|-----------------------|
G|-----------------------|-----------------------|
D|-----/6--4-------6--4--|-----/6--4-------6--4--|
A|-6------------6--------|-4------------4--------|
E|-----------------------|-----------------------|
 
 
 
 
   C#m                     A                B
   Gtr.4
           ~~~~                    
E|-----------------------|------------------------|
B|-----------------------|------------7--9--------|
G|-6---/9--8----6--9--8--|-----/9--8--------8-----|
D|-----------------------|-7-------------------9--|
A|-----------------------|------------------------|
E|-----------------------|------------------------|
 | Gtr.5
E|-----------------------|------------------------|
B|-----------------------|------------------------|
G|-6---------------------|-2----------------4-----|
D|-6---------------------|-2----------------4-----|
A|-4---------------------|-0----------------2-----|
E|-4---------------------|------------------------|
 | Gtr.6
 |         ~~~~                    
E|-----------------------|------------------------|
B|-----------------------|------------------------|
G|-----------------------|------------------------|
D|-----------------------|------------4--6--------|
A|-4---/7--6----4--7--6--|-0---/7--6--------6-----|
E|-----------------------|---------------------7--|
 | Gtr.7
 |         ~~~~                    
E|-----------------------|------------------------|
B|-----------------------|------------------------|
G|-----------------------|---------------4--------|
D|-----/6--4-------6--4--|------6--4--7-----4-----|
A|-7------------7--------|-7-------------------6--|
E|-----------------------|------------------------|
                                     (One last
 
 
 
   C#m      B          G#m      A
   Gtr.4
E|-------------------|-------------------|
B|-------------------|-------------------|
G|-6-----------------|-------------------|
D|-------------------|-------------------|
A|-------------------|-------------------|
E|-------------------|-------------------|
 | Gtr.5
 |                     ~~~~~~~~
E|-------------------|-------------------|
B|-------------------|-------------------|
G|-6--------4--------|----------2--------|
D|-6--------4--------|----------2--------|
A|-4--------2--------|----------0--------|
E|-------------------|-4-----------------|
 | Gtr.6
E|-------------------|-------------------|
B|-------------------|-------------------|
G|-------------------|-------------------|
D|-------------------|-------------------|
A|-4-----------------|-------------------|
E|-------------------|-------------------|
 | Gtr.7
E|-------------------|-------------------|
B|-------------------|-------------------|
G|-------------------|-------------------|
D|-------------------|-------------------|
A|-7-----------------|-------------------|
E|-------------------|-------------------|
          We'll lay down_ to–day.____
   time.___)                    (One last
 
 
 
   C#m      B          G#m      A
   Gtr.5
                        ~~~~~~~
E|-------------------|-------------------|
B|-------------------|-------------------|
G|-6--------4--------|----------2--------|
D|-6--------4--------|----------2--------|
A|-4--------2--------|----------0--------|
E|-------------------|-4-----------------|
         Un-til we fade___   a – way.__
   time.___)                    (One last
 
 
 
   C#m      B          G#m      A
   Gtr.5
                       ~~~~~~~~
E|-------------------|-------------------|
B|-------------------|-------------------|
G|-6--------4--------|----------2--------|
D|-6--------4--------|----------2--------|
A|-4--------2--------|----------0--------|
E|-------------------|-4-----------------|
          We'll lay down_ to–day.____
   time.___)                    (One last
 
 
 
   C#m      B          A        G#m
   Gtr.5
                                 ~~~~~~~~~~~~~~~~~~~~~~~~~~~~
E|-------------------|---------------------------------------|
B|-------------------|---------------------------------------|
G|-6--------4--------|-2-------------------------------------|
D|-6--------4--------|-2-------------------------------------|
A|-4--------2--------|-0-------------------------------------|
E|-------------------|----------4----------------------------|
 | Gtr.8
 |                                   __3__ __3__ __3__ __3__
E|-------------------|---------------------------------------|
B|-------------------|---------------------------------------|
G|-------------------|---------------------------------4^6^8-|
D|-------------------|---------------------------4^6^7-------|
A|-------------------|---------------------4^6^7-------------|
E|-------------------|---------------4^5^7-------------------|
         Un-til we fade___   a – way.__
   time.___)                  
 
 
 
   C#m                   B
   Gtr.5
E|---------------------|---------------------|
B|---------------------|---------------------|
G|-6-------------------|-4-------------------|
D|-6-------------------|-4-------------------|
A|-4-------------------|-2-------------------|
E|---------------------|---------------------|
 | Gtr.8
 | ~~~~~~    1           ~~~~~~    ~~~~~~
E|---------------------|---------------------|
B|-5------7--b------r--|-4-------------------|
G|---------------------|--------4-(4)--------|
D|---------------------|------------------6--|
A|---------------------|---------------------|
E|---------------------|---------------------|
 
 
 
 
   G#m                    A
   Gtr.5
   ~~~~~~~~~~~~~~~~~~~~~
E|----------------------|----------------------------------------------|
B|----------------------|----------------------------------------------|
G|----------------------|-2--------------------------------------------|
D|----------------------|-2--------------------------------------------|
A|----------------------|-0--------------------------------------------|
E|-4--------------------|----------------------------------------------|
 | Gtr.8
 | ~~~~~~    ~~~~    ~~~~~~~~~                        ___3___  ___3___
E|----------------------|----------------------------------------------|
B|----------------------|-------------------------------------16-17-19-|
G|-4-----/6-(6)---8--6--|(6)----------------------------16-18----------|
D|----------------------|-------------------------16-18----------------|
A|----------------------|----------------16-18-19----------------------|
E|----------------------|------/16-16-17-------------------------------|
 
 
 
 
   C#m                     B
   Gtr.5
E|----------------------|---------------------------|
B|----------------------|---------------------------|
G|-6--------------------|--4------------------------|
D|-6--------------------|--4------------------------|
A|-4--------------------|--2------------------------|
E|----------------------|---------------------------|
 | Gtr.8
 | ~~~~~~~                           ~~~~~~~~~
E|----------------16----|/19--19----19--------16-19-|
B|17------19------------|---------------------------|
G|----------------------|---------------------------|
D|----------------------|---------------------------|
A|----------------------|---------------------------|
E|----------------------|---------------------------|
 
 
 
 
   A                          B
   Gtr.5
E|--------------------------|----------------------|
B|--------------------------|----------------------|
G|-2------------------------|-4--------------------|
D|-2------------------------|-4--------------------|
A|-0------------------------|-2--------------------|
E|--------------------------|----------------------|
 | Gtr.8
 | ~~~~~~~~~~~ ~~~~~ __3__    ~~~~~~~~~~~~~~~
 | 1_ _ _ _ _ _ _ _ _ _       1
E|19b---------19----19-r^17-|21b-------------21-23-|
B|--------------------------|----------------------|
G|--------------------------|----------------------|
D|--------------------------|----------------------|
A|--------------------------|----------------------|
E|--------------------------|----------------------|
 
 
 
 
      A/C#               B/D#              E                     A/E
      Gtr.5
E|---------------------------------------|------------------------------------------|
B|---------------------------------------|------------------------------------------|
G|12-------------------------------------|------------------------------------------|
D|-8--7-------7----------9-------9-------|------------------------------------------|
A|----4-------4----------6-------6-------|------------------------------------------|
E|---------------------------------------|-0----0--0-12---12--12-0---0--0-2-4--5--7-|
 | Gtr.8
 |    ~~~~~~~            ~~~~~~~                ~~~~~~~~~~~~~~~~~~~~
 |   1/2     1/2         1       1
E|---23b-----23b--r^21--24b-----24b---r--|24---24-----------------------------------|
B|---------------------------------------|------------------------------------------|
G|12-------------------------------------|------------------------------------------|
D|-8-------------------------------------|------------------------------------------|
A|---------------------------------------|------------------------------------------|
E|---------------------------------------|------------------------------------------|
                                             As their bod-ies lie____ still____
 
 
 
   C#m    C+     C#m7   C#m6       E/B    F#/A#  A
   Gtr.5
   ~~~~~~ ~~~~~~ ~~~~~~            ~~~~~~ ~~~~~~ ~~~~~~
E|-------------------------------|--------------------------------|
B|-------------------------------|--------------------------------|
G|-------------------------------|--------------------------------|
D|-------------------------------|--------------------------------|
A|-------------------------------|--------------------------------|
E|-9------8------7------6-5---4--|/7------6------5------2-4--5--7-|
  and the end-ing draws__ near,__ spir-its rise through the air,__
 
 
 
   C#m    C+     C#m7   C#m6     A            G#m        F#m       A/E
   Gtr.5
   ~~~~~~ ~~~~~~ ~~~~~~ ~~~~~~~  ~~~~~~~~~~~~ ~~~~~~~~~~ ~~~~~~~~~
E|-----------------------------|-------------------------------------------------|
B|-----------------------------|-------------------------------------------------|
G|-----------------------------|-------------------------------------------------|
D|-----------------------------|-------------------------------------------------|
A|-----------------------------|-------------------------------------------------|
E|-9------8------7-----/6------|-5------------4----------2---------0-------------|
 | Gtr.8
 |                                 P.M._
E|-----------------------------|-------------------------------------------------|
B|-----------------------------|---------------------9--10------------------9-10-|
G|-----------------------------|------------8-9--11------------------8-9-11------|
D|-----------------------------|-----7-9-11-------------------7-9-11-------------|
A|-----------------------------|---7---------------------------------------------|
E|-----------------------------|-------------------------------------------------|
  all their fears dis-ap-pear,it all be-comes_clear._A blind-ing light comes in-to
 
 
 
   B/D#        C#m             B                 A
   Gtr.5
   ~~~~~~~~~~~ ~~~~~~~~~~~~~~~ ~~~~~~~~~~~~~~~~~ ~~~~~~~~~~~~~~~~~~~~~~~~~
E|------------------------------------------------------------------------|
B|------------------------------------------------------------------------|
G|------------------------------------------------------------------------|
D|------------------------------------------------------------------------|
A|-6-----------4---------------2-----------------0------------------------|
E|------------------------------------------------------------------------|
 | Gtr.8
 | ~~~~ __3___                    __3__  ___3___ ___3___ ___3___ ___3___
E|--------------------------9-11-------------------------9-11-12-11-12-14-|
B|12----------------9-10-12--------------9-10-12-9-10-12------------------|
G|-----------8-9-11---------------8-9-11----------------------------------|
D|------9^11--------------------------------------------------------------|
A|------------------------------------------------------------------------|
E|------------------------------------------------------------------------|
   view,                   an old soul     ex - changed         for     a
 
 
 
    G#     G#/B#       C#m                     E/B
    Gtr.5
    ~~~~~~
E|------------------|-------------------------------------------------|
B|------------------|-------------------------------------------------|
G|6-----------------|4-6----------------------------------------------|
D|8-----------------|4-6----------------------------------------------|
A|---------3--4--6--|--4-----------------------2----------------------|
E|--4---------------|-------------------------------------------------|
 |  Gtr.8
E|-16----/20-----21-|-21\16-16-12-12----------------------------------|
B|------------------|----------------14-14----------------------------|
G|6-----------------|4---------------------13-13----------------------|
D|8-----------------|4---------------------------14-14-11-11----------|
A|------------------|----------------------------------------11-11----|
E|------------------|----------------------------------------------12-|
   new.       A fa -  mil   -   iar_____    voice      comes 
 
 
 
   A#m7(b5)  A
   Gtr.5
E|--------------------|-------------------|
B|--------------------|-------------------|
G|-----------2--------|-(2)---------------|
D|-----------2--------|-(2)---------------|
A|-1---------0--------|-(0)---------------|
E|--------------------|-------------------|
 | Gtr.8
 | ~~~~~~~~~ ~~~~~~~~~~~~~~~~~~~~~~~~~~~~~
E|--------------------|-------------------|
B|--------------------|-------------------|
G|--------------------|-------------------|
D|--------------------|-------------------|
A|13--------12--------|(12)---------------|
E|--------------------|-------------------|
   sin–ing__ through._____
 
 
 
   G#m                       Eb/G        D#
   Gtr.1
E|-4---4-4--4---4-4--4--4--|------------------------|
B|-4---4-4--4---4-4--4--4--|-4---4-4--x--8----8--x--|
G|-4---4-4--4---4-4--4--4--|-3---3-3--x--8----8--x--|
D|-6---6-6--6---6-6--6--6--|-1---1-1--x--8----8--x--|
A|-6---6-6--6---6-6--6--6--|-------------6----6--x--|
E|-4---4-4--4---4-4--4--4--|-3---3-3--x-------------|
            This fee-ling             in-side__ me,
 
 
 
   E5           C#m7           B/D#         F#
   Gtr.1
E|-0---0-0-0-x--0---0-0--x-x-|--------------2---2-2--x--|
B|-0---0-0-0-x--0---0-0--x-x-|-4---4-4-4----2---2-2--x--|
G|-9---9-9-9-x--6---6-6--x-x-|-4---4-4-4----3---3-3--x--|
D|-9---9-9-9-x--6---6-6--x-x-|-4---4-4-4----4---4-4--x--|
A|-7---7-7-7-x--4---4-4--x-x-|-6---6-6-6----4---4-4--x--|    
E|-0---0-0-0-x---------------|-----------0--2---2-2--x--|
   finally found my life, I'm fi-na-lly free.
 
 
 
   G#m                       Eb/G        D#
   Gtr.1
E|-4---4-4--4---4-4--4--4--|------------------------|
B|-4---4-4--4---4-4--4--4--|-4---4-4--x--8----8--x--|
G|-4---4-4--4---4-4--4--4--|-3---3-3--x--8----8--x--|
D|-6---6-6--6---6-6--6--6--|-1---1-1--x--8----8--x--|
A|-6---6-6--6---6-6--6--6--|-------------6----6--x--|
E|-4---4-4--4---4-4--4--4--|-3---3-3--x-------------|
            No lon - ger            torn in__ two, I
 
 
 
   E5           C#m7           B/D#         D#m
   Gtr.1
E|-0---0-0-0-x--0---0-0--x-x-|--------------6---6-6--6--|
B|-0---0-0-0-x--0---0-0--x-x-|-4---4-4-4-4--7---7-7--7--|
G|-9---9-9-9-x--6---6-6--x-x-|-4---4-4-4-4--8---8-8--8--|
D|-9---9-9-9-x--6---6-6--x-x-|-4---4-4-4-4--8---8-8--8--|
A|-7---7-7-7-x--4---4-4--x-x-|-6---6-6-6-6--6---6-6--6--|    
E|-0---0-0-0-x---------------|--------------------------|
  learned a-bout my life by liv - ing through__ you.
 
 
 
   G#m                D#/FX      D#
   Gtr.5
                      ~~~~    ~~~~~~ P.M.
E|------------------|--------------------|
B|------------------|--------------------|
G|------------------|--------------------|
D|-6----------------|--------------------|
A|-6----------------|-----/8--6------4-6-|
E|-4----------------|-3------------------|
       This fee-ling         in-side__ me,
 
 
 
   E         C#m7       B/F#      F#
   Gtr.5
E|--------------------|--------------------|
B|--------------------|--------------------|
G|-9---------6--------|-4---------3--------|
D|-9---------6--------|-4---------4--------|
A|-7------6--4--------|-6---------4--------|
E|--------------------|--------0--2--------|
 fi-nally found my life, I'm fi-na-lly free.
 
 
 
   G#m                D#/FX      D#
   Gtr.5
                      ~~~~    ~~~~~~ P.M.
E|------------------|--------------------|
B|------------------|--------------------|
G|------------------|--------------------|
D|-6----------------|--------------------|
A|-6----------------|-----/8--6------4-6-|
E|-4----------------|-3------------------|
       No lon - ger        torn in__ two,
 
 
 
   E         C#m7       B/D#     D#m
   Gtr.5
E|--------------------|-------------------|
B|--------------------|-------------------|
G|-9---------6--------|-4--------8--------|
D|-9---------6--------|-4--------8--------|
A|-7------6--4--------|-6--------6--------|
E|--------------------|-------------------|
 liv-ing my own life by learn-ing from you.
 
 
 
   E             C#m7             B/F#           
   Gtr.1
E|-0--x-0-0-0-0--0--x-0-0-0-0--|----------------|
B|-0--x-0-0-0-0--0--x-0-0-0-0--|--4--x-4-4-4-4--|
G|-1--x-1-1-1-1--6--x-6-6-6-6--|2-4--x-4-4-4-4--|
D|-2--x-2-2-2-2--6--x-6-6-6-6--|4-4--x-4-4-4-4--|
A|-2--x-2-2-2-2--4--x-4-4-4-4--|--2--x-2-2-2-2--|
E|-0--x-0-0-0-0----------------|--2--x-2-2-2-2--|
 | Gtr.5
E|----------------------0------|----------------|
B|----------------------0------|----------------|
G|-9--------------------6------|2-4-------------|
D|-9--------------------6------|4-4-------------|
A|-7----------7--4-------------|--6-------------|
E|-----------------------------|-------------0--|
               We'll meet a  -  gain,   my___   
 
 
 
    F#
    Gtr.1
E|--2---2-x-x-2---2-x-x-2--2--|-2---2-x-x-2---2-x-x-2--2--|
B|--2---2-x-x-2---2-x-x-2--2--|-2---2-x-x-2---2-x-x-2--2--|
G|4-3---3-x-x-3---3-x-x-3--3--|-3---3-x-x-3---3-x-x-3--3--|
D|4-4---4-x-x-4---4-x-x-4--4--|-4---4-x-x-4---4-x-x-4--4--|
A|--4---4-x-x-4---4-x-x-4--4--|-4---4-x-x-4---4-x-x-4--4--|
E|--2---2-x-x-2---2-x-x-2--2--|-2---2-x-x-2---2-x-x-2--2--|
 |  Gtr.5
 |                                           Pick sl.
E|----------------------------|---------------------------|
B|----------------------------|---------------------------|
G|4-3---------3---------------|-3-------------------------|
D|4-4---------4---------------|-4-------------------------|
A|--4---------4---------------|-4-------------------------|
E|--2---------2---------------|-2------------x-\x--\x-\x--|
    friend,                                  some   day
 
 
 
   G#m                  C#m6/A#
   Gtr.5
   ~~~~~~~~ ~~~~ ~~~~~  ~~~~~~    ~~~~~~
E|--------------------|----------------------|
B|--------------------|----------------------|
G|--------------------|----------------------|
D|--------------------|----------------------|
A|--------------------|-----------4----------|
E|-4--------6----7----|-6------7---------7-6-|
   soon._________________
 
 
 
   G#m      E           C#m      B/F# C#m6/A#
   Gtr.5
   ~~~~~~~~                      ~~~~ ~~~~~
E|--------------------|--------------------|
B|--------------------|--------------------|
G|--------------------|-6------------------|
D|-----------------8--|-6------------------|
A|----------2------6--|-4------------------|
E|-4--------0---------|----------7----6----|
 
 
 
 
   G#m                  C#m6/A#
   Gtr.5
   ~~~~~~~~ ~~~~ ~~~~~  ~~~~~~    ~~~~~~
E|--------------------|----------------------|
B|--------------------|----------------------|
G|--------------------|----------------------|
D|--------------------|----------------------|
A|--------------------|-----------4----------|
E|-4--------6----7----|-6------7---------7-6-|
 
 
 
 
   G#m      F#         E            F#
   Gtr.5
   ~~~~~~~~ ~~~~~~~~~
E|-------------------|-------------------|
B|-------------------|-------------------|
G|-------------------|-------------------|
D|----------4--------|-2------------4----|
A|----------4--------|-2------------4----|
E|-4--------2--------|-0------------2----|
 
 
 
 
   G#m                  C#m6/A#
   Gtr.5
   ~~~~~~~~ ~~~~ ~~~~~  ~~~~~~    ~~~~~~
E|--------------------|----------------------|
B|--------------------|----------------------|
G|--------------------|----------------------|
D|--------------------|----------------------|
A|--------------------|-----------4----------|
E|-4--------6----7----|-6------7---------7-6-|
 
 
 
 
   G#m      E           C#m      B/F# C#m6/A#
   Gtr.5
   ~~~~~~~~                      ~~~~ ~~~~~
E|--------------------|--------------------|
B|--------------------|--------------------|
G|--------------------|-6------------------|
D|-----------------8--|-6------------------|
A|----------2------6--|-4------------------|
E|-4--------0---------|----------7----6----|
 
 
 
 
   G#m                  C#m6/A#   D#/FX
   Gtr.5
   ~~~~~~~~ ~~~~ ~~~~~  ~~~~~~    ~~~~~~
E|--------------------|----------------------|
B|--------------------|----------------------|
G|--------------------|----------------------|
D|--------------------|----------------------|
A|--------------------|----------------------|
E|-4--------6----7----|-6------4--3------4-6-|
 
 
 
 
   G#m      E           C#m      D#
   Gtr.5
   ~~~~~~~~                      
E|--------------------|-------------------|
B|--------------------|-------------------|
G|--------------------|-6--------8--------|
D|-----------------8--|-6--------8--------|
A|----------2------6--|-4--------6--------|
E|-4--------0---------|-------------------|
 
 
 
 
   G#m                  C#m6/A#
   Gtr.4
   ~~~~~~~~ ~~~~ ~~~~~  ~~~~~~    ~~~~~~
E|--------------------|----------------------|
B|--------------------|----------------------|
G|--------------------|-----------6----------|
D|-6--------8----9----|-8------9---------9-8-|
A|--------------------|----------------------|
E|--------------------|----------------------|
 | Gtr.5
 | ~~~~~~~~ ~~~~ ~~~~~  ~~~~~~    ~~~~~~
E|--------------------|----------------------|
B|--------------------|----------------------|
G|--------------------|----------------------|
D|--------------------|----------------------|
A|--------------------|-----------4----------|
E|-4--------6----7----|-6------7---------7-6-|
 
 
 
 
   G#m      E           C#m      B/F# C#m6/A#
   Gtr.4
   ~~~~~~~~ ~~~~~~      ~~~~~~~~ ~~~~ ~~~~~
E|--------------------|--------------------|
B|--------------------|--------------------|
G|----------------/8--|-6------------------|
D|-6------------------|----------9----8----|
A|----------7---------|--------------------|
E|--------------------|--------------------|
 | Gtr.5
 | ~~~~~~~~                      ~~~~ ~~~~~
E|--------------------|--------------------|
B|--------------------|--------------------|
G|--------------------|-6------------------|
D|-----------------8--|-6------------------|
A|----------2------6--|-4------------------|
E|-4--------0---------|----------7----6----|
 
 
 
 
   G#m                  C#m6/A#
   Gtr.4
   ~~~~~~~~ ~~~~ ~~~~~  ~~~~~~    ~~~~~~
E|--------------------|----------------------|
B|--------------------|----------------------|
G|--------------------|-----------6----------|
D|-6--------8----9----|-8------9---------9-8-|
A|--------------------|----------------------|
E|--------------------|----------------------|
 | Gtr.5
 | ~~~~~~~~ ~~~~ ~~~~~  ~~~~~~    ~~~~~~
E|--------------------|----------------------|
B|--------------------|----------------------|
G|--------------------|----------------------|
D|--------------------|----------------------|
A|--------------------|-----------4----------|
E|-4--------6----7----|-6------7---------7-6-|
 
 
 
 
   G#m      F#         E            F#
   Gtr.4
   ~~~~~~~~ ~~~~~~~~~  ~~~~~~~~~~~~
E|-------------------|-------------------|
B|-------------------|-------------------|
G|-------------------|-------------------|
D|-6--------4--------|-2------------4----|
A|-------------------|-------------------|
E|-------------------|-------------------|
 | Gtr.5
 | ~~~~~~~~ ~~~~~~~~~
E|-------------------|-------------------|
B|-------------------|-------------------|
G|-------------------|-------------------|
D|----------4--------|-2------------4----|
A|----------4--------|-2------------4----|
E|-4--------2--------|-0------------2----|
 
 
 
 
   G#m                  C#m6/A#
   Gtr.4
   ~~~~~~~~ ~~~~ ~~~~~  ~~~~~~    ~~~~~~
E|--------------------|----------------------|
B|--------------------|----------------------|
G|--------------------|-----------6----------|
D|-6--------8----9----|-8------9---------9-8-|
A|--------------------|----------------------|
E|--------------------|----------------------|
 | Gtr.5
 | ~~~~~~~~ ~~~~ ~~~~~  ~~~~~~    ~~~~~~
E|--------------------|----------------------|
B|--------------------|----------------------|
G|--------------------|----------------------|
D|--------------------|----------------------|
A|--------------------|-----------4----------|
E|-4--------6----7----|-6------7---------7-6-|
 
 
 
 
   G#m      E           C#m      B/F# C#m6/A#
   Gtr.4
   ~~~~~~~~ ~~~~~~      ~~~~~~~~ ~~~~ ~~~~~
E|--------------------|--------------------|
B|--------------------|--------------------|
G|-----------------8--|-6------------------|
D|-6------------------|----------9----8----|
A|----------7---------|--------------------|
E|--------------------|--------------------|
 | Gtr.5
 | ~~~~~~~~                      ~~~~ ~~~~~
E|--------------------|--------------------|
B|--------------------|--------------------|
G|--------------------|-6------------------|
D|-----------------8--|-6------------------|
A|----------2------6--|-4------------------|
E|-4--------0---------|----------7----6----|
 
 
 
 
   G#m                  C#m6/A#   D#/FX
   Gtr.4
   ~~~~~~~~ ~~~~ ~~~~~  ~~~~~~    ~~~~~~
E|--------------------|----------------------|
B|--------------------|----------------------|
G|--------------------|----------------------|
D|-6--------9----8----|-8------6--5------6-8-|
A|--------------------|----------------------|
E|--------------------|----------------------|
 | Gtr.5
 | ~~~~~~~~ ~~~~ ~~~~~  ~~~~~~    ~~~~~~
E|--------------------|----------------------|
B|--------------------|----------------------|
G|--------------------|----------------------|
D|-------------





Comments


Popular Dream Theater tabs & chords
6 00 Bass Tabs
Solitary Shell Bass Tabs
The Flight Of The Bumblebee Bass Tabs
Glass Prison 3 Tabs
Great Debate Tabs
Pull Me Under 1 Tabs
Solitary Shell Tabs
Stream Of Consciousness Tabs
Surrounded 1 Tabs
Another Day Ukulele


Song lyrics



↑ Back to top | Tablatures and chords are parodies/interpretations of the original songs. You may use it for private study, scholarship, research or language learning purposes only
© 2014 AZChords.com Contact us | Privacy policy | DMCA | Add/correct tabs | Request tabs | Top 50 tabs