>
 >
Things Behind The Sun

Things Behind The Sun Guitar Tabs

Drake Nick - Things Behind The Sun chords, tabs, tablatures, lyrics

Guitar lessons | Add/correct | Request | Top 50 tabs Artists:  A B C D E F G H I J K L M N O P Q R S T U V W X Y Z 0-9

Things Behind The Sun Guitar Tabs – Drake Nick

CD, Sheet music, Poster

Do you like Things Behind The Sun? Share with your friends now
TabsTabs v2
PROPS GO TO: Arthur DIT LE guitariste fou

THINGS BEHIND THE SUN

Standard Tuning, capo 4th fret
     
Intro:
     
|--------|--------|--------|--------| 
|----0---|----0---|----0---|-0------| 
|----2---|----2---|----2---|---2-2--| 
|----2-22|----2-22|----2-22|--2-----| 
|0-0-----|0-0-----|0-0-----|0---0---| 
|--------|--------|--------|------0-|
     
     
|--------|--------|--------|--------|--------|--------| 
|----1---|----1---|--------|--------|--------|--------| 
|----2--2|-2--2---|----1---|----1---|----0-0-|-0---0--| 
|----2-2-|----2---|----2--2|-2--2--2|----0--0|-0-00--0| 
|0-0-----|0-0---02|----2-2-|----2-2-|----3-3-|--3---3-| 
|--------|--------|0-0-----|0-0-----|0-1-----|1-------|
     
|--------|--------|--------|--------| 
|----0---|----0---|----0---|----0---| 
|----2---|----2---|----1---|----1---| 
|----0--0|-0--0--0|----0--0|-0--0--0| 
|----2-2-|----2-2-|----2-2-|----2-2-| 
|1-0-----|0-0-----|0-0-----|0-0-----|
     
Verse: (basically a simplified version of the above)
     
|--------|--------|--------|--------|--------|--------|--------|--------| 
|----1---|----1---|--------|--------|---(0)--|---(0)--|----0---|----0---| 
|----2--2|----2--2|----1---|----1---|----0---|----0---|----2---|----1---| 
|----2-2-|----2-2-|----2--2|----2--2|----0--0|----0--0|----0--0|----0--0| 
|0-0-----|0-0-----|----2-2-|----2-2-|----3-3-|----3-3-|02--2-2-|----2-2-| 
|--------|--------|0-0-----|0-0-----|0-1-----|1-1-----|--0-----|0-0-----|
     
Second bit:
     
|--------|--------|--------|--------|--------|--------|--------|--------| 
|----2---|----3---|----2---|----3---|----1---|--0--1--|----1---|--0--1--| 
|----2---|----4---|----2---|----2---|----0---|--0--0--|----2---|--2--2--| 
|----2---|----2---|----2---|----4---|----2--2|--0--2--|----0--0|--0--0--| 
|0-0---00|0-0---00|0-0---00|0-0---00|------3-|----3---|------0-|--------| 
|--------|--------|--------|--------|0-3-----|3-----3-|3-2-----|2---2-2-|
     
(play above twice, then this:)
     
|--------|--------|--------|--------|--------|--------| 
|--------|--------|----0---|--0-----|----0---|--0-----| 
|----0---|--0-----|----2---|--2-----|----1---|--1-----| 
|----0---|--0-----|----0---|--0-----|----0---|--0-----| 
|----3-33|--3-333-|02--2-22|--2-222-|----2-22|--2-22--| 
|0-1-----|1-------|--0-----|0-------|0-0-----|0-----0-|
     

instrumental bit:
     
     
|--------|--------|--------|--------|--------|--------|--------|--------| 
|----2---|--3-----|----2---|----3---|----1---|--0--1--|----1---|--0--1--| 
|----2---|--4-----|----2---|----2---|----0---|--0--0--|----2---|--2--2--| 
|----2---|--2-----|----2---|----4---|----2--2|--0--2--|----0--0|--0--0--| 
|0-0---00|0---000-|0-0---00|0-0---00|------3-|----3---|------0-|--------| 
|--------|--------|--------|--------|0-3-----|3-----3-|3-2-----|2---2-2-|
     
|--------|--------|--------|--------|--------|--------| 
|--------|--------|----0---|----0---|----0---|----0---| 
|----0---|-0---0--|----2---|----2---|----1---|----1---| 
|----0--0|---00--0|----0--0|-0--0--0|----0--0|-0--0--0| 
|----3-3-|--3---3-|----2-2-|----2-2-|----2-2-|----2-2-| 
|0-1-----|1-------|1-0-----|0-0-----|0-0-----|0-0-----|





Comments


Popular Drake Nick tabs & chords
At The Chime Of A City Clock Chords
Place To Be Chords
Tunings Chords
Harvest Breed Tabs
Joey Tabs
Know Tabs
Mayfair Tabs
Road 1 Tabs
Strange Meeting Ii Tabs
Time Has Told Me Tabs


Song lyrics



↑ Back to top | Tablatures and chords are parodies/interpretations of the original songs. You may use it for private study, scholarship, research or language learning purposes only
© 2014 AZChords.com Contact us | Privacy policy | DMCA | Add/correct tabs | Request tabs | Top 50 tabs