» » »

Dragpipe, Quest In Time Tabs (ver.1)

Artists:  A B C D E F G H I J K L M N O P Q R S T U V W X Y Z # 

Quest In Time Tabs (ver.1)

Dragpipe Tabs
 Rating:
4/5 (4 votes)
Quest In Time lessons Tabs too difficult? Try these video lessons and learn fast
1
                Dragpipe
Quest in Time

drop d tuning (eadgbe)

Intro Riff - Gtr.1 (rectifier cab w/ flange and maybe wah for shape)

|------------------||
|------------------||
|------------------||
|------------------||
|------------------||
|-0-0-0-0-0-0-0----||


Gtr. 2 & 3
|--------------------------||
|--------------------------||
|--------------------------||
|-0-0-0-0-0-0-0------------||
|-0-0-0-0-0-0-0------------||
|-0-0-0-0-0-0-0------------||

Begining of Verse 
|-----------------||
|-----------------||
|-----------------||
|-0-1-2-0-1-2-----||
|-0-1-2-0-1-2-----||
|-0-1-2-0-1-2-----||

When vocals enter

Gtr.1 - Shape open low D string with a Morley type wah to create an envelope effect
Gtr.2 - Strum open DAD strings and let them sustain

|-------------||
|-------------||
|-------------||
|-0-----------||
|-0-----------||
|-0-----------||

Gtr.3 - P.M. the verse line along with the bass on the low D string

|----------------------------||
|----------------------------||
|----------------------------||
|----------------------------||
|----------------------------||
|-0-1-2-0-1-2----0-1-2-0-1-2-||


Chorus

|--------------------------||
|--------------------------||
|--------------------------||
|--6---8-3-----4--0--------||
|--6---8-3-----4--0--------||
|--6---8-3-----4--0--------||

2nd Verse same as 1st except Gtr.1 plays the high string note in the same
rythyum as the verse riff. (not a harmonic, actually a fingered note.

|-(10)-(10)-(10)-(10)-(10)-||
|--------------------------||
|--------------------------||
|--------------------------||
|--------------------------||
|--------------------------||
            
Submit corrections

comments powered by Disqus
↑ Back to top | Dragpipe Tabs for Quest In Time. Lyrics for acoustic guitar and electric guitar. 1 Tablatures and chords are parodies/interpretations of the original songs. You may use it for private study, scholarship, research or language learning purposes only