» » »

Dragpipe, Puller Tabs (ver.1)

Artists:  A B C D E F G H I J K L M N O P Q R S T U V W X Y Z # 

Puller Tabs (ver.1)

Dragpipe Tabs
 Rating:
4/5 (4 votes)
Puller lessons Tabs too difficult? Try these video lessons and learn fast
                Dragpipe

drop d tuning (dadgbe)

This is quite possibly the easiest song to play on the disk

Intro Riff - Gtr.1 (same as Gtr.1's part in Pre verse)

(lots of vibrato - constantly bend the strings)
|-------------------||
|-------------------||
|-------------------||
|----~6----~6----~6-||
|-~6-6--~6-6--~6-6--||
|-------------------||


When the band enters Gtr.1 plays same as above (Pre-Chorus)
Gtr. 2 & 3 (Gtr.2 plays the chords - Gtr.3 hits the high note)

|------4--------4-----||
|---------------------||
|---------------------||
|-1--1----1-1-1-------||
|-1--1----1-1-1-------||
|-1--1----1-1-1-------||



Begining of Verse (just 2 guitars play this part)
|-----------------||
|-----------------||
|-----------------||
|-1-1---1-1-1-----||
|-1-1---1-1-1-----||
|-1-1---1-1-1-----||

Chorus

feels    so       good      lie away   
|-------------------------------------------||
|-------------------------------------------||
|-------------------------------------------||
|-1--1----1-0------1------9-9-9--8-8-8------||
|-1--1----1-0------1------9-9-9--8-8-8------||
|-1--1----1-0------1------9-9-9--8-8-8------||



Bridge (Over guitar solo)

first 2 chords & same strumming pattern as the first part of the 
chorus. After this part is over, then go into the Chorus.

|----------------------------||
|----------------------------||
|----------------------------||
|-1-1-1-1-0-0-1-1------------||
|-1-1-1-1-0-0-1-1------------||
|-1-1-1-1-0-0-1-1------------||
            
Submit corrections

comments powered by Disqus
↑ Back to top | Dragpipe Tabs for Puller. Lyrics for acoustic guitar and electric guitar. Tablatures and chords are parodies/interpretations of the original songs. You may use it for private study, scholarship, research or language learning purposes only