» » »

Fountian Of Pain Tabs (ver.1)

Artists:  A B C D E F G H I J K L M N O P Q R S T U V W X Y Z # 

Fountian Of Pain Tabs (ver.1)

Dragpipe
Rating:
0/5 (0 votes)

Hard to play? Try these video lessons and learn fast.
                Riff CLEAN do over when it ends so it sounds good)
|----------------------------
|----------------------------
|----------------------------
|---2----9-9---7--------------
|--2-2--9-9---7-7-------------
|-0----7-----5---5-43----------


pre-chorus
|----------------------------
|----------------------------
|---7--9-8---10-9-10---------
|---x--x-x---x--x-x----------
|---5--7-6---8--7-8----------
|----------------------------


chorus DISTORTED (do over when it ends so it sounds good)
|-----------------------------
|-----------------------------
|-----------------------------
|--22-9999-77777-65-----------
|--22-9999-77777-65-----------
|--00-7777-55555-43-----------
 
            
Hard to play? Try these video lessons and learn fast. | Correct




comments powered by Disqus
↑ Back to top | Tablatures and chords are parodies/interpretations of the original songs. You may use it for private study, scholarship, research or language learning purposes only