» » »

My Spirit Will Go On Tabs (ver.2)

Artists:  A B C D E F G H I J K L M N O P Q R S T U V W X Y Z # 

My Spirit Will Go On Tabs (ver.2)

Dragonforce
Rating:
0/5 (0 votes)

Hard to play? Try these video lessons and learn fast.
                ONLY THE SOLO...PARTS ARE MISSING, BUT YOU ALL'l GET THE POINT

4:21
WITH WAH
e|----------------------10-------------------------------------------|
B|-----8-10-8---8-10-12----12-10-8-10--8-10-12-10-8-------8----------|
G|-7-9--------9-------------------------------------9-7-9---9-7-9-7--|
D|-------------------------------------------------------------------|
A|-------------------------------------------------------------------|
E|-------------------------------------------------------------------|

e|--------------17-14-17--------171717-14---14-17p14--14-------|
B|-1010----1010----------15---15----------15--------15---------|
G|------11------------------14---------------------------------|
D|-------------------------------------------------------------|
A|-------------------------------------------------------------|
E|-------------------------------------------------------------|

e|------------------------------------------------------|
B|------------------------------------------------------|
G|-9-12-9---------------9-------------------------------|
D|--------12-9----9--12---12-9----9-12------------------|
A|-------------12--------------12------10---------------|
E|------------------------------------------------------|

e|------------------------10---------10s12=10--7---------------------|
B|----------8-------12-12----12-10-8-------------10-8-10-12-10-8-12--|
G|-9-7-9-11---9S11---------------------------------------------------|
D|-------------------------------------------------------------------|
A|-------------------------------------------------------------------|
E|-------------------------------------------------------------------|

e|--------------------------------------|
B|--------------------------------------|
G|-9-91112--91214-14161412--------------|
D|------------------------1412----------|
A|--------------------------------------|
E|--------------------------------------|

WAH OFF
e|-12-12-14-15--12-14-15---19-17-15-14-15-14--14--------|
B|------------------------------------------15----------|
G|------------------------------------------------------|
D|------------------------------------------------------|
A|------------------------------------------------------|
E|------------------------------------------------------|

    /--X8--\    /--X8--\   /--X8--\  /--X8--\
e|---------|---------|--------|---------|
B|-12h15p12|-13h10p13|-12h8p12|-10h7p10-|
G|---------|---------|--------|---------|
D|---------|---------|--------|---------|
A|---------|---------|--------|---------|
E|---------|---------|--------|---------|

4:43-4:54  ?????????




4:55
e|-----------------------------|
B|-----------------------------|
G|-----------------------------|
D|-9--7---5-----4--------------|
A|-7--5---3--5--2--------------|
E|-----------3-----------------|

e|--t12h9p7-t12h9p7-t12h9p7-t12h9p7—t14h9p7-t14h9p7-t12h9p7t-t12h9p7-----|
B|-----------------------------------------------------------------------|
G|-----------------------------------------------------------------------|
D|-----------------------------------------------------------------------|
A|-----------------------------------------------------------------------|
E|-----------------------------------------------------------------------|

e|--t16h9p7-t16h9p7-t16h9-t14h9p7-t14h9p7-t12h9p7-t12h9p7-t12h9p7--------|
B|-----------------------------------------------------------------------|
G|-----------------------------------------------------------------------|
D|-----------------------------------------------------------------------|
A|-----------------------------------------------------------------------|
E|-----------------------------------------------------------------------|

e|-16-12-16-12-------------16-12---12-16*--12-9---9=19*-----------|
B|-------------17-14-17-14-------14-------------9-----------------|
G|----------------------------------------------------------------|
D|----------------------------------------------------------------|
A|----------------------------------------------------------------|
E|----------------------------------------------------------------|

e|------------------------------------7-999-12-999-14-16-14-12---|
B|---------------------------------------------------------------|
G|-------------9-----------11-13-11-9----------------------------|
D|--9-11-11-11---11-11-11----------------------------------------|
A|---------------------------------------------------------------|
E|---------------------------------------------------------------|

e|--16-19-19-21-19-16-19-21-19-16----14*---------|
B|--------------------------------17-------------|
G|-----------------------------------------------|
D|-----------------------------------------------|
A|-----------------------------------------------|
E|-----------------------------------------------|

e|--16-16b-16b-14-12-14-16-14-12--------------------------------------|
B|-------------------------------14--14------16-17-14-16-17-----------|
G|--------------------------------------16-18-------------------------|
D|--------------------------------------------------------------------|
A|---------------------------------------------------------|
E|---------------------------------------------------------|

e|--16-12-14-16-16-12-14-16--191919-16-19------------------|
B|----------------------------------------1717-14-17-------|
G|---------------------------------------------------------|
D|---------------------------------------------------------|
A|---------------------------------------------------------|
E|---------------------------------------------------------|

e|-t12h9p11-t12h9p11----|
B|----------------------|
G|----------------------|
D|----------------------|
A|----------------------|
E|----------------------|
            
Hard to play? Try these video lessons and learn fast. | Correct




comments powered by Disqus
↑ Back to top | Tablatures and chords are parodies/interpretations of the original songs. You may use it for private study, scholarship, research or language learning purposes only