>
 >
Whoa Is Me 1

Whoa Is Me 1 Guitar Tabs

Down With Webster - Whoa Is Me 1 chords, tabs, tablatures, lyrics

Guitar lessons | Add/correct | Request | Top 50 tabs Artists:  A B C D E F G H I J K L M N O P Q R S T U V W X Y Z 0-9

Whoa Is Me 1 Guitar Tabs – Down With Webster

CD, Sheet music, Poster

Do you like Whoa Is Me 1? Share with your friends now
TabsTabs v2
Tuning: Standard and/or Whole Step Down (EADGBE) / (DGCFAD)

I've seen the other tab for this song, and I believe my version is much more 
precise. Not trying to be offensive, alright? I placed in the times for each tab 
so you will easily play it more. Anyway… I've tabbed this whole thing and placed 
the 2 versions (Standard and D Standard), and both of them are still right. ;3

Enjoy as much as I enjoy doing the damn solo. ;P

========================================================
-------------------------LEGEND-------------------------
	•	. = PALM MUTE
	•	/ = SLIDE DOWN
	•	\ = SLIDE UP
	•	P = PULL-OFF
	•	H = HAMMER-ON
	•	B = BEND
	•	~ = RING
-------------------------LEGEND-------------------------
========================================================

INTRO: KEYBOARD

0:00 - 0:10 (Low Distortion), Outro as well
1st and 2nd Guitar:
E ||--------------------------------------------------||
B ||--------------------------------------------------||
G ||--------------------------------------------------||
D ||--8-8--8-----8/6--6-----6\11--11----11------------||
A ||--6-6--6-----6/4--4-----4\9---9-----9--9--9-------||
E ||---------------------------------------7--7-------||

0:11 - 0:21
1st Guitar: (Follow the drum kick)
E ||--------------------------------------------------||
B ||--------------------------------------------------||
G ||--------------------------------------------------||
D ||--8--8--8--8--6--6--6--6--11-11-11-11-------------||
A ||--6--6--6--6--4--4--4--4--9--9--9--9--9--9--9--9--||
E ||--------------------------------------7--7--7--7--||
      .  .  .  .  .  .  .  .  .  .  .  .  .  .  .  .

0:22 - 0:43, 2:41 - 3:34
1st and 2nd Guitar:
E ||--------------------------------------------------||
B ||--------------------------------------------------||
G ||--------------------------------------------------||\
D ||--8-8-8-8-8-8-8-8-6-6-6-6-6-6-6-6-----------------|| \
A ||--6-6-6-6-6-6-6-6-4-4-4-4-4-4-4-4-----------------||  \
E ||--------------------------------------------------||   \
      . . . . . . . . . . . . . . . .                       \
                                                             4x
E ||--------------------------------------------------||    /
B ||--------------------------------------------------||   /
G ||--------------------------------------------------||  /
D ||--11-11-11-11-11-11-11-11-------------------------|| /
A ||--9--9--9--9--9--9--9--9--9-9-9-9-9-9-9-9---------||/
E ||--------------------------7-7-7-7-7-7-7-7---------||
      .  .  .  .  .  .  .  .  . . . . . . . .

1st Guitar: (Follow the drum kick)
0:44 - 1:25, 1:36 - 2:07, 2:09 - 2:30
E ||--------------------------------------------------||
B ||--------------------------------------------------||
G ||--------------------------------------------------||
D ||--8--8--8--8--6--6--6--6--11-11-11-11-------------||
A ||--6--6--6--6--4--4--4--4--9--9--9--9--9--9--9--9--||
E ||--------------------------------------7--7--7--7--|| 4x
      .  .  .  .  .  .  .  .  .  .  .  .  .  .  .  .

2nd Guitar: (Background) [When guitar plays 3rd time above, play this part.]
0:43 - 1:25 (4x), 1:47 - 1:57 (2X), 2:09 - 2:30
E ||--------------------------------------------------||
B ||--------------------------------------------------||
G ||--8~--10\11---6~---10\11---6~---6-6-6-6-5-5-5-5---||
D ||--------------------------------------------------||
A ||--6~--8-\9----4~---8-\9----4~---4-4-4-4-3-3-3-3---||
E ||--------------------------------------------------|| 0:43 - 1:25 (4x)

1:58 - 2:07 (1X)
E ||--------------------------------------------------||
B ||--------------------------------------------------||
G ||--8~--10\11---6~---10\11---6~---6-6-6-6---PAUSE---||
D ||------------------------------------------PAUSE---||
A ||--6~--8-\9----4~---8-\9----4~---4-4-4-4---PAUSE---||
E ||--------------------------------------------------||

2ND GUITAR SOLO:
2:51 - 2:58
E ||--------------------------------------------------||
B ||--------------------------------------------------||
G ||--------------------------------------------------||
D ||--------------------------------------------------||
A ||--6~--8-9-8~--9\11--9h11h13-9--------13-----------||
E ||------------------------------11~--11-------------||
                           
                           OR
2:51 - 2:58
E ||--------------------------------------------------||
B ||--------------------------------------------------||
G ||--------------------------------------------------||
D ||--------------------------------------------------||
A ||--6~--8-9-8~--9\11--9-11\13-9--------13-----------||
E ||------------------------------11~--11-------------||

2:59 - 3:01
E ||--------------------------------------------------||
B ||--14P11-14P11-14P11-14P11--14b--14b--14b--14b-----||
G ||--------------------------------------------------||
D ||--------------------------------------------------||
A ||--------------------------------------------------||
E ||--------------------------------------------------||

3:01 - 3:06
E ||--11b-11b-----------------------------------------||
B ||-----------14P11--11------------------------------||
G ||----------------13--13P11--13b--------------------||
D ||--------------------------------------------------||
A ||--------------------------------------------------||
E ||--------------------------------------------------|| 2x

3:07 - 3:09
E ||--14P11--11---------------------------------------||
B ||-------14--14P11H14P11--11------------------------||
G ||----------------------13--13P11---11--------------||
D ||--------------------------------13--13P11H13~-----||
A ||--------------------------------------------------||
E ||--------------------------------------------------||

3:10 - 3:12
E ||---------------------------------16B-16B-16B-16B--||
B ||----------------14H16P14H16P14H16-----------------||
G ||----11--11-13\15----------------------------------||
D ||--13--13------------------------------------------||
A ||--------------------------------------------------||
E ||--------------------------------------------------||

3:12 - 3:13
E ||--------------------------------------------------||
B ||--16B--16B-/--------------------------------------||
G ||--------------------------------------------------||
D ||--------------------------------------------------||
A ||--------------------------------------------------||
E ||--------------------------------------------------||

--------------------------------------------------------
========================================================
--------------------------------------------------------
========================================================
--------------------------------------------------------

TUNING: D STANDARD (DGCFAD)

INTRO: PIANO/KEYBOARD

0:00 - 0:10 (Low Distortion) Outro as well
1st and 2nd Guitar:
D ||--------------------------------------------------||
A ||--------------------------------------------------||
F ||--------------------------------------------------||
C ||--10-10--10---10/8--8-----8\13--13----13----------||
G ||--8--8---8----8/-6--6-----6\11--11----11-11--11---||
D ||-----------------------------------------9---9----||

0:11 - 0:21
1st Guitar and 2nd: (Follow the drum kick)
D ||--------------------------------------------------||
A ||--------------------------------------------------||
F ||--------------------------------------------------||
C ||--10-10-10-10-8--8--8--8--13-13-13-13-------------||
G ||--8--8--8--8--6--6--6--6--11-11-11-11-11-11-11-11-||
D ||--------------------------------------9--9--9--9--||
      .  .  .  .  .  .  .  .  .  .  .  .  .  .  .  .

0:22 - 0:43, 2:41 - 3:34
1st and 2nd Guitar:
D ||--------------------------------------------------||
A ||--(10's)------------------------------------------||
F ||---V----------------------------------------------||\
C ||--10101010101010108-8-8-8-8-8-8-8-----------------|| \
G ||--8-8-8-8-8-8-8-8-6-6-6-6-6-6-6-6-----------------||  \
D ||--------------------------------------------------||   \
      . . . . . . . . . . . . . . . .                       \
                                                             4x
D ||--------------------------------------------------||    /
A ||--------------------------------------------------||   /
F ||---------------------------(11's)-----------------||  /
C ||--13-13-13-13-13-13-13-13---V---------------------|| /
G ||--11-11-11-11-11-11-11-11-1111111111111111--------||/
D ||--------------------------9-9-9-9-9-9-9-9---------||
      .  .  .  .  .  .  .  .  . . . . . . . .

1st Guitar: (Follow the drum kick)
0:44 - 1:25, 1:36 - 2:07, 2:09 - 2:30
D ||--------------------------------------------------||
A ||--------------------------------------------------||
F ||--------------------------------------------------||
C ||--10-10-10-10-8--8--8--8--13-13-13-13-------------||
G ||--8--8--8--8--6--6--6--6--11-11-11-11-11-11-11-11-||
D ||--------------------------------------9--9--9--9--|| 4x
      .  .  .  .  .  .  .  .  .  .  .  .  .  .  .  .

2nd Guitar: (Background) [When guitar plays 3rd time above, play this part.]
0:43 - 1:25 (4x), 1:47 - 2:07, 1:47 - 1:57 (2X), 2:09 - 2:30
D ||--------------------------------------------------||
A ||--------------------------------------------------||
F ||--10~--12\13---8~---12\13---6~---6-6-6-6-5-5-5-5--||
C ||--------------------------------------------------||
G ||--8~---10\11---6~---10\11---4~---4-4-4-4-3-3-3-3--||
D ||--------------------------------------------------|| 0:43 - 1:25 (4x)

1:58 - 2:07 (1X)
D ||--------------------------------------------------||
A ||--------------------------------------------------||
F ||--10~-12\13---8~---12\13---6~---6-6-6-6---PAUSE---||
C ||------------------------------------------PAUSE---||
G ||--8~--10\11---6~---10\11---4~---4-4-4-4---PAUSE---||
D ||--------------------------------------------------||

2ND GUITAR SOLO:
2:51 - 2:58
D ||--------------------------------------------------||
A ||--------------------------------------------------||
F ||--------------------------------------------------||
C ||--------------------------------------------------||
G ||--8~--10-11-10~--11\13--11H13P15-11--------15-----||
D ||------------------------------------13~--13-------||
                          
                           OR
2:51 - 2:58
D ||--------------------------------------------------||
A ||--------------------------------------------------||
F ||--------------------------------------------------||
C ||--------------------------------------------------||
G ||--8~--10-11-10~--11\13--11-13\15-11-------15------||
D ||-----------------------------------13~--13--------||

2:59 - 3:01
D ||--------------------------------------------------||
A ||--16P13-16P13-16P13-16P13--16B--16B--16B--16B-----||
F ||--------------------------------------------------||
C ||--------------------------------------------------||
G ||--------------------------------------------------||
D ||--------------------------------------------------||

3:01 - 3:06
D ||--13B-13B-----------------------------------------||
A ||-----------16P13--13------------------------------||
F ||----------------15--15P13--15B--------------------||
C ||--------------------------------------------------||
G ||--------------------------------------------------||
D ||--------------------------------------------------|| 2x

3:07 - 3:09
D ||--16P13--13---------------------------------------||
A ||-------16--16P13H16P13--13------------------------||
F ||----------------------15--15P13---13--------------||
C ||--------------------------------15--15P13H15~-----||
G ||--------------------------------------------------||
D ||--------------------------------------------------||

3:10 - 3:12
D ||---------------------------------18B-18B-18B-18B--||
A ||----------------16H18P16H18P16H18-----------------||
F ||----13--13-15\17----------------------------------||
C ||--15--15------------------------------------------||
G ||--------------------------------------------------||
D ||--------------------------------------------------||

3:12 - 3:13
D ||--------------------------------------------------||
A ||--18B--18B-/--------------------------------------||
F ||--------------------------------------------------||
C ||--------------------------------------------------||
G ||--------------------------------------------------||
D ||--------------------------------------------------||





Comments


Popular Down With Webster tabs & chords
Big Wheels Chords
Grind Chords
One In A Million Chords
She's Dope Chords
Your Man Chords
Your Man 1 Chords
Big Wheels Tabs
Party For Your Life Intro Tabs
Rich Girl Tabs
Your Man Intro 1 Tabs


Song lyrics



↑ Back to top | Tablatures and chords are parodies/interpretations of the original songs. You may use it for private study, scholarship, research or language learning purposes only
© 2014 AZChords.com Contact us | Privacy policy | DMCA | Add/correct tabs | Request tabs | Top 50 tabs