>
 >
Touch

Touch Guitar Tabs

Downset - Touch chords, tabs, tablatures, lyrics

Guitar lessons | Add/correct | Request | Top 50 tabs Artists:  A B C D E F G H I J K L M N O P Q R S T U V W X Y Z 0-9

Touch Guitar Tabs – Downset

CD, Sheet music, Poster

Do you like Touch? Share with your friends now
Tabs
		    Downset ~ Touch

Bass line for guitar 
e|---------------------------------------------------------------------| 
B|---------------------------------------------------------------------| 
G|---------------------------------------------------------------------| 
D|-------4--4h5-2-------5--4--0-----|-----4--4h5-2-0------5--4--0------| 
A|-----2----------2---2---------0h2-|---0--------------0----------0h2--| 
E|--2---------------2---------------|-0--------------0-----------------| 

Intro:
e|-----------------------------------------------------------------------|
B|-----------------------------------------------------------------------|
G|--9/11\8--7/9\6--11/12\10--9/11\8--11/12\10--9/11\8-—11/12/10—7/9/8/6--|
D|-----------------------------------------------------------------------|
A|-----------------------------------------------------------------------|
E|-----------------------------------------------------------------------|


Verse:
e|-------------------------------|
B|-------------------------------|
G|-----------------------3--3-3--|
D|-2--x-x-x-x-x-x---x-x-—3--3-3—-|
A|-2--x-x-x-x-x-x---x-x--1--1-1--|
E|-0--x-x-x-x-x-x---x-x----------|

Chorus:
e|-------------------------------------------------------------|
B|-------------------------------------------------------------|
G|-----------------------10--9---------------------------------|
D|--2—-7\5-7\5-2-2--7--5-10--9--2—-7\5-7\5-2-2--x-x-x-x-x-x-x--|
A|--2--7\5-7\5-2-2--7--5--8--7--2--7\5-7\5-2-2--x-x-x-x-x-x-x--|
E|--0--5\3-5\3-0-0--5--3--------0--5\3-5\3-0-0--x-x-x-x-x-x-x--|
“Do you got, Do you got, Do you got any love in your heart”


Interlude:
e|-------------------------------------------|
B|-------------------------------------------|
G|--9/11\8--7/9\6--9/11\8--11/12\10--9/11\8--|
D|-------------------------------------------|
A|-------------------------------------------|
E|-------------------------------------------|

Bridge:
e|--------------|
B|--------------|
G|--------------|
D|--5\4--5\4-2--|
A|--5\4--5\4-2--|
E|--3\2--3\2-0--|
“Love is not weakness”


Outro:
e|-------------------------------------------------------15----15-14--------|
B|----------------------------------------------------12----12-------15-15--|
G|--9/11\8—7/9\6-----------/11---/16-14-\12-12------------------------------|
D|------------------9-10/12--------------------14-14------------------------|
A|--------------------------------------------------------------------------|
E|--------------------------------------------------------------------------|

e|----------------------------------------------------0--|
B|----------------------------------------------------0--|
G|----12\11----11---------12------------12-11---------0--|
D|--9-------12----/14---9----/14-12-14--------14--14--2--|
A|----------------------------------------------------2--|
E|----------------------------------------------------0--|


Bass line:	1X
Intro:	1X
Verse:	8X
Chorus:	4X
Interlude:	1X
Verse:	8X
Chorus:	4X
Bridge:	3X
Chorus:	8X
Outro:	1X





Comments


Popular Downset tabs & chords
Empower Bass Tabs
Eyes Shut Tight 1 Bass Tabs
Fallen Off Bass Tabs
Prostitutionalized 1 Bass Tabs
Sangre De Mis Manos Bass Tabs
Secret Song Bass Tabs
Empower Drum Tabs
Eyes Shut Tight Tabs
Fire Tabs
Together Tabs


Song lyrics



↑ Back to top | Tablatures and chords are parodies/interpretations of the original songs. You may use it for private study, scholarship, research or language learning purposes only
© 2014 AZChords.com Contact us | Privacy policy | DMCA | Add/correct tabs | Request tabs | Top 50 tabs