» » »

Fire Tabs (ver.1)

Artists:  A B C D E F G H I J K L M N O P Q R S T U V W X Y Z # 

Fire Tabs (ver.1)

Downset
Rating:
0/5 (0 votes)

Hard to play? Try these video lessons and learn fast.
                downset fire
tuning - drop d down 1/2 step (C#,G#,C#,F#,A#,D#)
all i have figured out is the intro and chorus
intro (heavy dist)
e------------------|----------|repeat 2x
B------------------|----------|
G--7-7-7-7-7-7-7-7-|----------|
D--7-7-7-7-7-7-7-7-|--6-6-6-6-|
A--5-5-5-5-5-5-5-5-|--6-6-6-6-|
D------------------|--6-6-6-6-|
chorus  give! give! wheres your fire?!
e-------------------------------------------------
B-------------------------------------------------
G-------------------------------------------------
D--0-0-0--2---7---5---2----0-0-0--2---5--2--5--2--
A--0-0-0--2---7---5---2----0-0-0--2---5--2--5--2--
D--0-0-0--2---7---5---2----0-0-0--2---5--2--5--2--
p.m.....               p.m......

ill post more when i figure it out
later,rock on
            
Hard to play? Try these video lessons and learn fast. | Correct




comments powered by Disqus
↑ Back to top | Tablatures and chords are parodies/interpretations of the original songs. You may use it for private study, scholarship, research or language learning purposes only