» » »

Underneath Everything Tabs (ver.1)

Artists:  A B C D E F G H I J K L M N O P Q R S T U V W X Y Z # 

Underneath Everything Tabs (ver.1)

Down
Rating:
0/5 (0 votes)

Hard to play? Try these video lessons and learn fast.
                Down-Underneath Evrything

 OF course Down tunes waay down to Db tuning ( drop D then 1/2 step)
      Intro                     
Eb|--------|
Bd|--------|
Gb|--------|
Db|--------|
Ab|----5\--|
Db|-0------|
                        
                            #1
eb|-------------------------------------------------------|
Bb|-------------------------------------------------------|
Gb|-------------------------------------------------------|
Db|-------------------------------------------------------|
Ab|------------5--------3------------5--------------------|
Db|000000--0h3---000000---000000--0h3---3-3-3h5-5p3p0----|
   [.pm. ]       [.pm. ]  [.pm. ]
             
                          #2
eb|-------------------------------------------------------|
Bb|-------------------------------------------------------|
Gb|-------------------------------------------------------|
Db|-------------------------------------------------------|
Ab|----------5\--------3-----------32---2--23---3--3p2p0--|
Db|000000--3----0000--3--3p0--0000-32---2--23---3--3p2p0--|
   [.pm.]       [pm]          [pm]     pm      pm

                          #3
eb|------------------|----------------------------------|
Bb|------(3 times)---|----------------------------------|
Gb|------------------|----------------------------------|
Db|--8--8--8--8--8\7-|----------------------------------|
Ab|--6--6--6--6--6\5-|----------------------------------|
Db|0---pm----pm------|--3--3--3h5--5p3p0----------------|
        
                           #4
eb|--------------------|----------------------------------|
Bb|------(3 times)-----|----------------------------------|
Gb|--------------------|----------------------------------|
Db|---8--8--8--8--8--8-|----------------------------------|
Ab|---6--6--6--6--6--6-|----------------------------------|
Db|0----pm----pm----pm-|-3--3---3h5---5p3p0---------------|
        
                          Outro
eb|--------------------|---------------------------------|
Bb|------(3 times)-----|---------------------------------|
Gb|--------------------|---------------------------------|
Db|------8--8--8--8--8-|---------------------------------|
Ab|-000--6--6--6--6--6-|---------------------------------|
Db|-000-----pm----pm---|-3--3--3h5--5p3p0----------------|
   [pm]    

OK, song order is as follows:
Intro 
#1; 6 times
#2; twice
#3; twice
#1; 4 times
#2; 4 times
#3; 4 times
#1; 6 times (into solo on 2nd)
#3; 3 times
#4; twice
outro; repeat through end
            
Hard to play? Try these video lessons and learn fast. | Correct




comments powered by Disqus
↑ Back to top | Tablatures and chords are parodies/interpretations of the original songs. You may use it for private study, scholarship, research or language learning purposes only