» » »

Mourn Tabs (ver.1)

Artists:  A B C D E F G H I J K L M N O P Q R S T U V W X Y Z # 

Mourn Tabs (ver.1)

Down
Rating:
5/5 (1 vote)

Hard to play? Try these video lessons and learn fast.
                
I always look up tabs, so I decided to not be such a chun and give something back to 
Here’s what I got by ear, it’s probably not completely correct, but it works for me. No 
included, sorry.

/ - slide (slide up or down to the note beside it, if there isn't a note, slide to open)
x - Palm mute
b - Bend
r - Release (bend back to normal, don’t just drop it)
h - Hammer on
p - Pull off
~ - vibrato

INTRO / CHORUS

|--------------------------------------------|
|-------------9--9--9--9/--------------------|
|-------7--7--8--8--8--8/--------------------|
|-------7--7--6--6--6--6/--------------------|
|--3/5--5--5--6--6--6--6/--------------------|
|----------------------------3----0--3--4--5-|

|--------------------------------------------|
|-------------9--9--9--9/--------------------|
|-------7--7--8--8--8--8/--------------------|
|-------7--7--6--6--6--6/--------------------|
|--3/5--5--5--6--6--6--6/--------------------|
|-----------------------------0--9h12--9/3---|  x 3

|----------------------------------------------|
|-------------9--9--9--9/----------------------|
|-------7--7--8--8--8--8/----------------------|
|-------7--7--6--6--6--6/----------------------|
|--3/5--5--5--6--6--6--6/----------------------|
|------------------------------3----0--3--4--5-|

|---------------------------------------|
|---------------------------------------|
|---------------------------------------|
|---------------------------------------|
|-------------------6--5--3----0--33--5-|
|-x-6 ~ --x-6 ~ xx--6--5--3----0--33--5-|


VERSE

    |-------------------------------------------------------------| (the 5b7 bend
    |-------------------------------------------------------------| should not be
    |-------------------------------------------------------------| too durastic to
    |-------------------------------------------------------------| get the right
    |-------------------------------------------------------------| note, don't
  3/-0-xx-0--0-x-xxx--3h5--3/-0-xx-/7--5--3--0--3h5b7r/-|---------| overbend)


    |---------------------------------------------------|
    |---------------------------------------------------| (don't play square
    |---------------------------------------------------| brackets on the
    |---------------------------------------------------| last repetition)
    |---------------------------------------------------|
    |-0-xx-0--0-x-xxx--3h5--3/-0-xx-/7--5--3-[-0--3h5-]-| x3

RIFF A

|---------------------------------------------|
|---------------------------------------------|
|---------------------------------------------|
|---------------------------------------------|
|---------------------------------------------|
|-x-6 ~ --x-6 ~ --x6 ~ --x-6-x-66-x-6/-0------|

|-------------------------------------------|
|-------------------------------------------|
|-------------------------------------------|
|-------------------------------------------|
|-------------------------------------------|
|-x-6 ~ --x-6 ~ --x6 ~ --x-6 ~ --x-6--5--3--| x2

Play the chorus riff twice

RIFF B
            x4
|-------------|------------------------------|
|-------------|------------------------------|
|-------------|------------------------------|
|-------------|------------------------------|
|-------------|------------6--5--3--0--33--5-|
|-x-3b-x-5b-x-|---x-3b-x-x-6--5--3--0--33--5-|

Play the verse riff 3 times (as usual)
Play RIFF A twice
Play chorus riff four times
Play RIFF B four times (minus the little ending)

During Solo                  x4
|------------|-----------------|----------------------------------------|
|------------|-----------------|----------------------------------------|
|------------|-----------------|----------------------------------------|
|------------|-----------------|----------------------------------------|
|------------|-0----5----6-----|--0----5----2----0----5----2---x-x-2-1--|
|---x-3b-x-x-|-0----5----6-----|--0----5----2----0----5----2---x-x-2-1--|

------------------------------------------------|
------------------------------------------------|
------------------------------------------------|
------------------------------------------------|
0----5----2---x-x-x---x---x--0----5----2----2-1-|
0----5----2---x-x-x---x---x--0----5----2----2-1-|

Play RIFF A twice
Play chorus riff four times, and end on the three lowest open notes.
            
Hard to play? Try these video lessons and learn fast. | Correct




comments powered by Disqus
↑ Back to top | Tablatures and chords are parodies/interpretations of the original songs. You may use it for private study, scholarship, research or language learning purposes only