» » »

Down, Lysergic Funeral Procession Tabs (ver.2)

Artists:  A B C D E F G H I J K L M N O P Q R S T U V W X Y Z # 

Lysergic Funeral Procession Tabs (ver.2)

Down Tabs
 Rating:
4/5 (4 votes)
Lysergic Funeral Procession lessons Tabs too difficult? Try these video lessons and learn fast
1
                Lysergik Funeral Procession
Tune down 1.5 steps (low C#)

Intro                                                  4x
|------------------------------------------------------|
|------------------------------------------------------|
|------------------------------------------------------|
|------------------------------------------------------|
|-7-10p7-----------------------7-10--------------------|
|--------10-7~~7~~7b\5~~5b\3~~------7~~7~~7b\5~~5b\3~~-|

Main riff
|-------------------------------------------|
|-------------------------------------------|
|-------------------------------------------|
|-------5---------5\4-----------5---5b-5b-5-|
|---------7-----------5/7---------7---------|
|-0h5h7-----0h5h7---------0h5h7-------------|
                                   p.m. .
|--------------------------------------------|
|--------------------------------------------|
|--------------------------------------------|
|-------5---------5s4------------------------|
|---------7-----------5s7--------------5-5\7-|
|-0h5h7-----0h5h7---------0h5h7-----0-0-0----|

Chorus
p.m..................................
|------------------------------------------------|
|------------------------------------------------|
|------------------------------------------------|
|------------------------------------------------|
|-9-9-9-9-9-9-8-8-8-7-7-7-5-5-5-5-5-5-7-9-7-5--5-|
|-7-7-7-7-7-7-6-6-6-5-5-5-5-5-5-3-3-3-5-7-5-3--3-|

Bridge
|-----------------------------|
|-----------------------------|
|-----------------------------|
|-----9-----------------------|
|-----7-----1010--7---7-7-7\5-|
|-0-0---0-0-8-8-0-5-0-5-5-5\3-|

Fill
|-------------------------------------|
|-------------------------------------|
|-------------------------------------|
|-------------------------------------|
|-10-10-10-10-10-10/12-12-12-12-12-12-|
|-8--8--8--8--8--8-/10-10-10-10-10-10-|

Lead fill near the end
|-----------------------------------------------------------------|
|-----------------------------------------------------------------|
|-----------------------------------------------------------------|
|-14h16-16-16-16-16-14h16-16-16-16-16p14---14---------------------|
|----------------------------------------16---16-15-14-12-14p12---|
|---------------------------------------------------------------14|
            
Submit corrections

comments powered by Disqus
↑ Back to top | Down Tabs for Lysergic Funeral Procession. Lyrics for acoustic guitar and electric guitar. 1 Tablatures and chords are parodies/interpretations of the original songs. You may use it for private study, scholarship, research or language learning purposes only